solitude 06202013 1215

(/) Slide Up  (\) Slide Down  (h) Hammer On  (p) Pull Off  (b) Bend (r) Release (v) Vibrato

E|----------------------------------------------------------------------
B|--------3--1------------------3--1--------3--1------------------3--1--
G|--0--3--------2h3p2-----0--3--------0--3--------2h3p2-----0--3--------
D|---------------------3---------------------------------3--------------
A|----------------------------------------------------------------------
E|----------------------------------------------------------------------



E|--5h6p5-----5--5--5h6p5-----5--5--
B|---------6---------------6--------
G|----------------------------------
D|----------------------------------
A|----------------------------------
E|----------------------------------



E|-------------------------------------------------------
B|--------3--1------------------3--1---------------------
G|--0--3--------2h3p2-----0--3--------2h3p2--0--2--0--2--
D|---------------------3---------------------0--3--0--3--
A|-------------------------------------------------------
E|-------------------------------------------------------



E|---------------------------------------
B|---------------------------------------
G|--0--2h3p2--------2--3--2--0--2--0--2--
D|------------3--3-----------0--3--0--3--
A|---------------------------------------
E|---------------------------------------



E|--5h6p5--------3--5h6p5--------3--3--1--
B|---------6--6------------6--6-----0--1--
G|----------------------------------0--2--
D|----------------------------------0--3--
A|----------------------------------2-----
E|----------------------------------3-----
http://www.guitartabcreator.com
Guitar Tab Creator is intended to store guitar tab created through the tool. It currently does not support in-line text editing. Any text you place in here will be lost. If you need to comment on your tab, please use the "Tab Notes" section located below.