First Tab

(/) Slide Up  (\) Slide Down  (h) Hammer On  (p) Pull Off  (b) Bend (r) Release (v) Vibrato
E|--------------------------------------------------------------
B|--------------------------------------------------------------
G|--------6--4-----------6--4-----------4--2-----------4--2-----
D|-----4--------7-----4--------7-----2--------5-----2--------5--
A|--5--------------5--------------3--------------3--------------
E|--------------------------------------------------------------



E|-----------------------------------------------------------------------------------------------------
B|--------------0--3--0-----------0--3--0-----------------3--------------3-----------------------------
G|-----------0-----------0-----0-----------0--------2--2-----2--2-----2-----2--2--------0--0--4--0-----
D|-----------------------------------------------------------------------------------------------------
A|--3--0-----------------------------------------------------------------------------------------------
E|--------3-----------------3-----------------0--2-----------------2--------------2--0--------------0--



E|--------------------------------------------------------
B|-----------------------0--------0--------------0--3--0--
G|--0--0--4--0--------0--------0--------0-----0-----------
D|--------------------------------------------------------
A|-----------------3--------2--------0--------------------
E|--------------0--------------------------3--------------
http://www.guitartabcreator.com
Guitar Tab Creator is intended to store guitar tab created through the tool. It currently does not support in-line text editing. Any text you place in here will be lost. If you need to comment on your tab, please use the "Tab Notes" section located below.