Rolling Stones Paint it Black (capo 2)

(/) Slide Up  (\) Slide Down  (h) Hammer On  (p) Pull Off  (b) Bend (r) Release (v) Vibrato
E|-----------0--1--1--3--3--0--1--3--------0-----1-----3-----1-----0--------------------------
B|--------3--3-----3-----3--3--3--3--3-----------------------------------3-----3--2--3--5--0--
G|-----2-----2-----2-----2--2--2--2-----------------------------------------------------------
D|--0--------0-----0-----0--0--0--0-----0-----0-----0-----0-----0-----0-----0-----------------
A|--------------------------------------------------------------------------------------------
E|--------------------------------------------------------------------------------------------



E|-----------0---------
B|--0h1h2h3-----3\2p2--
G|---------------------
D|---------------------
A|---------------------
E|---------------------
http://www.guitartabcreator.com
Guitar Tab Creator is intended to store guitar tab created through the tool. It currently does not support in-line text editing. Any text you place in here will be lost. If you need to comment on your tab, please use the "Tab Notes" section located below.