A minor blues shapes

(/) Slide Up  (\) Slide Down  (h) Hammer On  (p) Pull Off  (b) Bend (r) Release (v) Vibrato


E|--------------------------------------5--8--
B|--------------------------------5--8--------
G|-----------------------5--7--8--------------
D|-----------------5--7-----------------------
A|--------5--6--7-----------------------------
E|--5--8--------------------------------------



E|---------------------------------------8--10--
B|--------------------------------8--10---------
G|-----------------------7--8--9----------------
D|----------------7--10-------------------------
A|---------7--10--------------------------------
E|--8--10---------------------------------------



E|---------------------------------------------10--11--12--
B|-------------------------------------10--13--------------
G|------------------------------9--12----------------------
D|------------------10--12--13-----------------------------
A|----------10--12-----------------------------------------
E|--10--12-------------------------------------------------



E|----------------------------------------------12--15--
B|--------------------------------------13--15----------
G|------------------------------12--14------------------
D|------------------12--13--14--------------------------
A|----------12--15--------------------------------------
E|--12--15----------------------------------------------



E|----------------------------------------------15--17--
B|----------------------------------15--16--17----------
G|--------------------------14--17----------------------
D|------------------14--17------------------------------
A|----------15--17--------------------------------------
E|--15--17----------------------------------------------



E|--------------------------------------------------17--20--
B|------------------------------------------17--20----------
G|------------------------------17--19--20------------------
D|----------------------17--19------------------------------
A|----------17--18--19--------------------------------------
E|--17--20--------------------------------------------------
http://
Guitar Tab Creator is intended to store guitar tab created through the tool. It currently does not support in-line text editing. Any text you place in here will be lost. If you need to comment on your tab, please use the "Tab Notes" section located below.