Sweet Home Alabama (Lead) (My Version)

(/) Slide Up  (\) Slide Down  (h) Hammer On  (p) Pull Off  (b) Bend (r) Release (v) Vibrato

E|--------------------------------3----------------------|--------------------------------3-----
B|--------3----------------------------------------------|--------3-----------------------------
G|-----------2--------0----------------------------------|-----------2--------0-----------------
D|--0--0-----------------2----------------0h2--2p0-------|--0--0-----------------2--------------
A|--------------3--3--------------2--0h2------------2p0--|--------------3--3--------------2-----
E|--------------------------3--3--3----------------------|--------------------------3--3--3-----



E|------------------------------|--------------------------------3----------------------|-----------
B|------------------------------|--------3----------------------------------------------|-----------
G|-------0-------0-------0------|-----------2--------3----------------------------------|-----------
D|--0h2-----0h2-----0h2---------|--0--0-----------------2----------------0h2--2p0-------|--0--0-----
A|------------------------------|--------------3--3--------------2--0h2------------2p0--|-----------
E|------------------------------|--------------------------3--3--3----------------------|-----------



E|--------------------------3----------------------|--------------------------------3---------------
B|--3----------------------------------------------|--------3---------------------------------------
G|-----2--------0----------------------------------|-----------2--------0---------------------------
D|-----------------2----------------0h2--2p0-------|--0--0-----------------2----------------0h2-----
A|--------3--3--------------2--0h2------------2p0--|--------------3--3--------------2--0h2----------
E|--------------------3--3--3----------------------|--------------------------3--3--3---------------



E|------------|--------------------------------3----------------------|--------------------------
B|------------|--------3----------------------------------------------|--------------------------
G|------------|-----------2--------0----------------------------------|--------------------------
D|--2p0-------|--0--0-----------------2----------------0h2--2p0-------|-------7-------5-------5--
A|-------2p0--|--------------3--3--------------2--0h2------------2p0--|--7h9-----5h7-----5h7-----
E|------------|--------------------------3--3--3----------------------|--------------------------



E|-----------------------------------------|--------------------------------3--------------------
B|-----------------------------------------|-----------------------------------------------------
G|-----------------------------------------|-----------------------------------------------------
D|--5----------7-------5--5-------5--5-----|--7--7--9--7--5--5--7--5----------------0h2--2p0-----
A|--------7h9-----5h7--------5h7-----------|--------------------------------2--0h2---------------
E|-----3--------------------------------3--|--------------------------3--3--3--------------------



E|-------|-------------------------------------------------------------------------------------
B|-------|-------------------------------------------------------------------------------------
G|-------|-------------------------------------------------------------------------------------
D|-------|-------------------------------2-------2-------2-------2-----------------------------
A|--2p0--|--7--7--9--7--5--5--7--5--0h2-----0h2-----0h2-----0h2-----7--7--9--7--5--5--7--5-----
E|-------|-------------------------------------------------------------------------------------



E|--------3----------------------|--------------------------------3--1-----3--
B|-------------------------------|-----------------------------------1--1-----
G|-------------------------------|-----------------------------------2--------
D|----------------0h2--2p0-------|--7--7--9--7--5--5--7--5-----------3--2-----
A|--------2--0h2------------2p0--|--------------------------------2--3--3--2--
E|--3--3--3----------------------|--------------------------3--3--3--1-----3--
http://www.guitartabcreator.com
Guitar Tab Creator is intended to store guitar tab created through the tool. It currently does not support in-line text editing. Any text you place in here will be lost. If you need to comment on your tab, please use the "Tab Notes" section located below.