PACHELBEL'S CANNON ARRANGEMENT IN E_Beginners Guitar

(/) Slide Up  (\) Slide Down  (h) Hammer On  (p) Pull Off  (b) Bend (r) Release (v) Vibrato

E|----------------------|------------------------|----------------------|----------------------|--
B|----------------------|------------------------|----------------------|----------------------|--
G|----------------------|------------------------|----------------------|----------------------|--
D|----------------------|------------------------|----------------------|----------------------|--
A|--7----7--------------|--4----4----------------|--0----0--------------|--0----0----2----2----|--
E|------------7----7----|------------4----4------|------------0----0----|----------------------|--



E|--4--------2----------|--0---------------------|----------------------|----------------------|--
B|----------------------|-----------4------------|--2--------0----------|--2--------4----------|--
G|----------------------|------------------------|----------------------|----------------------|--
D|----------------------|------------------------|----------------------|----------------------|--
A|----------------------|------------------------|----------------------|----------------------|--
E|----------------------|------------------------|----------------------|----------------------|--



E|-4--2--4--0--2---0----|-0-----0----------------|----------------------|---
B|--------------------4-|----4-----2--4---2--0---|-2--0--2-----0--------|---
G|----------------------|------------------------|----------2------2--1-|---
D|----------------------|------------------------|----------------------|---
A|----------------------|------------------------|----------------------|---
E|----------------------|------------------------|----------------------|---



E|----------------0--2-----|-
B|----0--2-----4--------4--|-
G|-2--------2--------------|-
D|-------------------------|-
A|-------------------------|-
E|-------------------------|-



E|----------------------|----------------------|------------------|----------------------|--
B|----------------------|----------------------|------------------|----------------------|--
G|----------------------|----------------------|------------------|----------------------|--
D|----------------------|----------------------|------------------|----------------------|--
A|--7-------------------|--4-------------------|--0---------------|--0--------2----------|--
E|-----------7----------|-----------4----------|---------0--------|----------------------|--
http://www.guitartabcreator.com
Guitar Tab Creator is intended to store guitar tab created through the tool. It currently does not support in-line text editing. Any text you place in here will be lost. If you need to comment on your tab, please use the "Tab Notes" section located below.