The Hands Of Time

(/) Slide Up  (\) Slide Down  (h) Hammer On  (p) Pull Off  (b) Bend (r) Release (v) Vibrato
E|--------------------------------------------------------------------------------------------------
B|--------------------------------------------------------------------------------------------------
G|--------------------------------------------------------------------------------------------------
D|--------------------------------------------------------------------------------------------------
A|--------------------------------------------------------------------------------------------------
E|--5--5--5--5--5--5--5--5--5--5--5--5--5--5--5--5--2--2--2--2--2--2--2--2--3--3--3--3--3--3--3--3--



E|--------------------------------------------------
B|--------------------------------------------------
G|--------------------------------------------------
D|--------------------------------------------------
A|--------------------------------------------------
E|--5--5--5--5--2--2--2--2--3--3--3--3--3--3--3--3



E|--------------------------------------------------------------------
B|--------------------------------------------------------------------
G|--------------------------------------------------------------------
D|--------------------------------------------------------------------
A|--5--5--5-----------------------------------------------------------
E|-----------0--0--0--7--7--7--7--7--7--7--7--6--6--6--6--6--6--6--6--



E|--------------------------------------------------
B|--------------------------------------------------
G|--------------------------------------------------
D|--------------------------------------------------
A|--4--4--4--4--2--2--2--2--------------------------
E|--------------------------2--2--2--2--2--2--2--2--



E|--
B|--
G|--
D|--
A|--
E|--



E|-----------------------------------------------------------------------------------------------------
B|-----------------------------------------------------------------------------------------------------
G|-----------------------------------------------------------------------------------------------------
D|-----------------------------------------------------------------------------------------------------
A|--4--4--4--4--4--4--4--4--4--4--4--4--4--4--4--4--2--2--2--2--2--2--2--2--2--2--2--2--2--2--2--2-----
E|-----------------------------------------------------------------------------------------------------



E|--------------------------------------------------------------------------------------------------
B|--------------------------------------------------------------------------------------------------
G|--------------------------------------------------------------------------------------------------
D|--------------------------------------------------------------------------------------------------
A|--------------------------------------------------------------------------------------------------
E|--2--2--2--2--2--2--2--2--2--2--2--2--2--2--2--2--4--4--4--4--4--4--4--4--4--4--4--4--4--4--4--4--



E|--------------------------------------------------------------------------------
B|--------------------------------------------------------------------------------
G|--------------------------------------------------------------------------------
D|--------------------------------------------------------------------------------
A|--4--4--4--4--4--4--7--7--7--7--7--7--7--4--4--4--4--4--4--7--7--7--7--7--7--7--
E|--------------------------------------------------------------------------------



E|--------------------------------------------------------------------------------
B|--------------------------------------------------------------------------------
G|--------------------------------------------------------------------------------
D|--------------------------------------------------------------------------------
A|--------------------------------------------------------------------------------
E|--2--2--0--2--2--0--5--5--5--5--5--5--5--2--2--0--2--2--0--5--5--5--5--5--5--5--



E|--------------------------------------------------------------------------------------------------
B|--------------------------------------------------------------------------------------------------
G|--------------------------------------------------------------------------------------------------
D|--------------------------------------------------------------------------------------------------
A|--4--4--4--4--2--2--2--2--------------------------4--4--4--4--2--2--2--2--------------------------
E|--------------------------2--2--2--2--2--2--2--2--------------------------2--2--2--2--2--2--2--2--
http://www.guitartabcreator.com
Guitar Tab Creator is intended to store guitar tab created through the tool. It currently does not support in-line text editing. Any text you place in here will be lost. If you need to comment on your tab, please use the "Tab Notes" section located below.