Mary

(/) Slide Up  (\) Slide Down  (h) Hammer On  (p) Pull Off  (b) Bend (r) Release (v) Vibrato
E|-----------2--------3--2-----------0--------2--0-----------0-----------------------0--------------
B|--------3-----3-----------------2-----2-----------------0-----0-----------------0-----0-----------
G|-----2-----------2-----------2-----------2-----------0-----------0-----0-----0-----------0-----0--
D|--0-----------------------------------------------------------------------------------------------
A|--------------------------0-----------------------------------------------------------------------
E|--------------------------------------------------0-----------------0-----0-----------------0-----



E|-----------3--------5-----7--7--------7--10-----9--0-----------0-----------------------0--------------
B|--------0-----0--------0--------0---------------------------2-----2-----------------0-----0-----------
G|-----0-----------0-----------------0---------0-----------0-----------0-----0-----0-----------0-----0--
D|------------------------------------------------------------------------------------------------------
A|------------------------------------------------------0-----------------0-----0-----------------0-----
E|--2---------------------------------------------------------------------------------------------------
http://www.guitartabcreator.com
Guitar Tab Creator is intended to store guitar tab created through the tool. It currently does not support in-line text editing. Any text you place in here will be lost. If you need to comment on your tab, please use the "Tab Notes" section located below.