dont know

(/) Slide Up  (\) Slide Down  (h) Hammer On  (p) Pull Off  (b) Bend (r) Release (v) Vibrato


E|---------------------------------------------------------15--
B|---------------------------------------------------------15--
G|-------------------------------------------------12--14------
D|----------------------------10---------12----11--------------
A|--------------12b12--12p10------12p10--------14--------------
E|--10--10--10-------------------------------------------------



E|--9---9---9-----9----------9---9---9---9-------------------
B|--10--10--10----10---------10--10--10--10------------------
G|--9---9---9-----9---9---8--9---9---9---9---13--13--13--13--
D|--------------------10--9------------------14--14--14--14--
A|--9---9---9-----9---10--9--9---9---9---9---14--14--14--14--
E|--------------------8---7------------------12--12------12--



E|----5----4----5------------------
B|----5----5----5----7h8--8--7-----
G|----6----4----7----7----------7--
D|----7----6----7----7-------------
A|----7----4----7------------------
E|----5---------5------------------



E|--5--4--5--2--
B|--5--5--7--4--
G|--6--4--7--4--
D|--7--6--7--4--
A|--7--4--5--2--
E|--5-----5-----



E|------------------------------------------------------
B|------------------------------------------------------
G|----------16--15------------------14--15--14--12------
D|------13----------13----------12------------------14--
A|--14------------------13--12--------------------------
E|------------------------------------------------------



E|------------------------------------------------------
B|------------------------------------------------------
G|----------16--15------------------14--12--15--14--18--
D|------13----------13----------12----------------------
A|--14------------------13--12--------------------------
E|------------------------------------------------------



E|--2----3--2----2----1--5----8-----7--6--6--6--6--
B|--2----5--4----2----3--5----8-----7--6--6--6--6--
G|--3----5--4----3----3--6----9-----8--7--7--7--7--
D|--4----5--4----4----3--7----10----9--8--8--8--8--
A|--4----3--2----4----1----------------------------
E|--2------------2---------------------------------
http://www.guitartabcreator.com
Guitar Tab Creator is intended to store guitar tab created through the tool. It currently does not support in-line text editing. Any text you place in here will be lost. If you need to comment on your tab, please use the "Tab Notes" section located below.