angry

(/) Slide Up  (\) Slide Down  (h) Hammer On  (p) Pull Off  (b) Bend (r) Release (v) Vibrato

E|--2--2--2----5----2--2--2----0----2--2--2---------------------------------
B|--2--2--2----5----2--2--2----0----2--2--2---------------------------------
G|--3--3--3----6----3--3--3----1----3--3--3------7-----6-----4--------------
D|--4--4--4----7----4--4--4----2----4--4--4---------4-----4-----7--6--4-----
A|--4--4--4----7----4--4--4----2----4--4--4------------------------------7--
E|--2--2--2----5----2--2--2----0----2--2--2---------------------------------



E|--------------------------------------------------------------------------------4p2h5p2h4p2-----
B|----------------7b7b--------------------4b4----------------7b7-------------------------------5--
G|------------------------------------------------------------------------------------------------
D|--4--4--4--4--------------4--4--4--4---------4--4--4--4-----------4--4--4--4--------------------
A|--4--4--4--4--------------4--4--4--4---------4--4--4--4-----------4--4--4--4--------------------
E|--2--2--2--2--------------2--2--2--2---------2--2--2--2-----------2--2--2--2--------------------
http://www.guitartabcreator.com
Guitar Tab Creator is intended to store guitar tab created through the tool. It currently does not support in-line text editing. Any text you place in here will be lost. If you need to comment on your tab, please use the "Tab Notes" section located below.