up all night

(/) Slide Up  (\) Slide Down  (h) Hammer On  (p) Pull Off  (b) Bend (r) Release (v) Vibrato


E|----------------------------------
B|--9-----------------------14--12--
G|--10--10--15--13--15--13--14--12--
D|--10--11--16--14--16--14--14--12--
A|--8---11--16--14--16--14--12--10--
E|------9---14--12--14--12----------



E|---------------------------------
B|---------------------------------
G|----------------10--8--10--8-----
D|--7--13--11--9--10--8--10--8-----
A|--7--13--11--9--8---6--8---6-----
E|--5--11--9---7-------------------



E|------------------------------
B|------------------------------
G|----------------10--8--10--10b
D|--7--13--11--9--10--8--10-----
A|--7--13--11--9--8---6--8------
E|--5--11--9---7----------------



E|-13-13-13-13-13-8-8-11-11-11-11-11-8-8-13-13-13-13-13-8-8-11-11-11-11-11-8-11-13-16b
B|------------------------------------------------------------------------------------
G|------------------------------------------------------------------------------------
D|------------------------------------------------------------------------------------
A|------------------------------------------------------------------------------------
E|------------------------------------------------------------------------------------



E|-16p13-16p13-16p13-16-----------------------16p13-16p13-16p13-16----------------------
B|-----------------------16----16----16----16----------------------16----16----16----16-
G|--------------------------15----15----15----------------------------15----15----15----
D|--------------------------------------------------------------------------------------
A|--------------------------------------------------------------------------------------
E|--------------------------------------------------------------------------------------



E|-18-16-13----13--18-16-13----13-16--18-16-13----13-16-13b16b18b
B|----------16--------------16-----------------16----------------
G|---------------------------------------------------------------
D|---------------------------------------------------------------
A|---------------------------------------------------------------
E|---------------------------------------------------------------
http://www.guitartabcreator.com
Guitar Tab Creator is intended to store guitar tab created through the tool. It currently does not support in-line text editing. Any text you place in here will be lost. If you need to comment on your tab, please use the "Tab Notes" section located below.