She Turned Me Into A Lizard

(/) Slide Up  (\) Slide Down  (h) Hammer On  (p) Pull Off  (b) Bend (r) Release (v) Vibrato

E|-----------8-----------------
B|-----6--------6-----6--10p6--
G|--7-----7--------7-----------
D|-----------------------------
A|-----------------------------
E|-----------------------------



E|-----------8----------------
B|-----6--------6-----6--8p6--
G|--7-----7--------7----------
D|----------------------------
A|----------------------------
E|----------------------------



E|-----------8-----------8--------8--
B|-----------6-----------6--------6--
G|-----------7-----------7--------7--
D|--0--0--0-----0--0--0-----0--0-----
A|--0--0--0-----0--0--0-----0--0-----
E|--0--0--0-----0--0--0-----0--0-----



E|-----------8-----------8--------8--
B|-----------6-----------6--------6--
G|-----------7-----------7--------7--
D|--5--5--5-----5--5--5-----5--5-----
A|--5--5--5-----5--5--5-----5--5-----
E|--5--5--5-----5--5--5-----5--5-----



E|-----------8-----------8----------10--
B|-----------6-----------6----------8---
G|-----------7-----------7----------9---
D|--8--8--8-----8--8--8-----10--10------
A|--8--8--8-----8--8--8-----10--10------
E|--8--8--8-----8--8--8-----10--10------



E|-----------8-----------8-----------
B|-----------6-----------6--------8--
G|-----------7-----------7--------6--
D|--0--0--0-----0--0--0-----0--0--7--
A|--0--0--0-----0--0--0-----0--0-----
E|--0--0--0-----0--0--0-----0--0-----



E|------------------------------------------------
B|------------------------------------------------
G|------------------------------------------------
D|--------------------------------------5h7p5-----
A|--------------5-----------0--5--7--8---------8--
E|--0--5--7--8-----8--7--5------------------------



E|------------------------------------------------------------------------------------------
B|------------------------------------------------------------------------------------------
G|------------------------------------------------------------------------------------------
D|------------------------------------------------------------------------------------------
A|------------------------------------------------------------------------------------------
E|-0-0-0-0-0-0-0--0--0--3-3-3-3-3--2-2-2-2-2---5-5-5-5-5-5-5--5--5--7-7--7-7---10-10--10-10-



E|------------------------------------------
B|------------------------------------------
G|------------------------------------------
D|-0v-------5---------7-8-7-----------5---0-
A|-0----------8-7-5-7-------8-7-5-7-8---8-0-
E|-0--------------------------------------0-



E|---------------------------------------------------------------
B|---------------------------------------------------------------
G|---------------------------------------------------------------
D|---5---------------7--------------8---------------10-----------
A|-------8---7---5-------8---7-5--------8---7---5--------8---7-5-
E|-0---0---0---0---0---0---0---0--0---0---0---0---0----0---0---0-



E|-------------------------------------------------------------------
B|-------------------------------------------------------------------
G|-------------------------------------------------------------------
D|-0v---------------------------------------------5-5-5-5-8-8-8-8/15-
A|-0------------------------------5-5-5-5-8-8-8-8--------------------
E|-0------0-0-0-0-3-3-3-3-5-5-5-5------------------------------------



E|-------------------------------------------------------
B|------------------------------------------11-----------
G|------------------------------------------14-----------
D|------------------------------------7--7------7--7-----
A|------------------------------------5--5------5--5-----
E|--0----0----0----0--0--0--0--0----------------------0--
http://www.guitartabcreator.com
Guitar Tab Creator is intended to store guitar tab created through the tool. It currently does not support in-line text editing. Any text you place in here will be lost. If you need to comment on your tab, please use the "Tab Notes" section located below.