Gears of War Gave Me Pinkeye

(/) Slide Up  (\) Slide Down  (h) Hammer On  (p) Pull Off  (b) Bend (r) Release (v) Vibrato
E|--------------------------------------------------------------------------------------------
B|--------------------------------------------------------------------------------------------
G|--------------------------------------------------------------------------------------------
D|--5-----------8-----7-----------------8-----7--5-----------8-----7-----------------8-----7--
A|--5-----8-----------------5-----8--------------5-----8-----------------5-----8--------------
E|--5--5-----5-----5-----5-----5-----5-----5-----5--5-----5-----5-----5-----5-----5-----5-----



E|-----------------------------------------------
B|-----------------------------------------------
G|-----------------------------------------------
D|--8-----10-----8-----10-----8-----10-----8h10--
A|--8--------------------------------------------
E|--8--8------8-----8------8-----8------8--------



E|-----------------------------------------------
B|-----------------------------------------------
G|-----------------------------------------------
D|--7--------------------------------------------
A|--7-----10-----7-----10-----7-----10-----7h10--
E|--7--7------7-----7------7-----7------7--------



E|----------------------
B|----------------------
G|----------------------
D|----------------------
A|--7/8--7--5--7--5--3--
E|----------------------



E|----------------------------------------------------
B|-----------4-----------4----------------------------
G|-----------7-----------7----------------------------
D|--0--0--0-----0--0--0-------------------------------
A|--0--0--0-----0--0--0-------8-----------7-----------
E|--0--0--0-----0--0--0----------11p8h11-----10p7h10--



E|----------------------------
B|----------------------------
G|----------------------------
D|--0--0--0--0----0--0--0--0--
A|--0--0--0--0----0--0--0--0--
E|--0--0--0--0----1--1--1--1--



E|------------
B|------------
G|------------
D|------------
A|------------
E|-0-0-0/12\0-



E|--------------------------------------------------
B|--------------------------------------------------
G|--------------------------------------------------
D|--0--0--0--0----0--0--0--0------------------------
A|--0--0--0--0----0--0--0--0---------5---------5h8--
E|--1--1--1--1----1--1--1--1----5h8-----8p5h8-------



E|--------------------------------------------------------------
B|--------------------------------------------------------------
G|--------------------------------------------------------------
D|--7--7--7--7--7--8--8--8--8--8--7--7--7--7--7--8--8--8--8--8--
A|--5--5--5--5--5--5--5--5--5--5--3--3--3--3--3--5--5--5--5--5--
E|--0--0--0--0--0--5--5--5--5--5--3--3--3--3--3--5--5--5--5--5--



E|-------------------------------------------------------------------------
B|-------------------------------------------------------------------------
G|-------------------------------------------------------------------------
D|--7--7--7--7--7--8--8--8--8--10--10--10--10--10--11--11--11--11--11--12--
A|--5--5--5--5--5--5--5--5--5--8---8---8---8---8---7---7---7---7---7---12--
E|--0--0--0--0--0--5--5--5--5--8---8---8---8---8---7---7---7---7---7---12--



E|--------------------------------------------
B|--------------------------------------------
G|--------------------------------------------
D|--------------------------------------------
A|--------------------------------------------
E|--12--12--12b13--12b13----0--0--0--0--0--0--



E|---------------------------------------------------------
B|---------------------------------------------------------
G|---------------------------------------------------------
D|---------------------------------------------------------
A|---------------------------------------------------------
E|--0--0--0--12b13--12b13--0--0--0--0--12b13--0--0--0--12--



E|----------------------------------------------------------------
B|----------------------------------------------------------------
G|----------------------------------------------------------------
D|----------------------------------------------------------------
A|-------------------------------------------------5---------5h8--
E|--0--0--0--1--1b2b1b2b1----0--0--0--0--0--0h5h8-----8p5h8-------
http://www.guitartabcreator.com
Guitar Tab Creator is intended to store guitar tab created through the tool. It currently does not support in-line text editing. Any text you place in here will be lost. If you need to comment on your tab, please use the "Tab Notes" section located below.