Only of You Custom Solo

(/) Slide Up  (\) Slide Down  (h) Hammer On  (p) Pull Off  (b) Bend (r) Release (v) Vibrato


E|------10--10------10--10------10---------------------------------------------------------10--8-----
B|--10----------10----------10------10--8h10p8------------------------------8h10p8-------------------
G|----------------------------------------------10--7------7--7------7--10----------10--7------------
D|-----------------------------------------------------10--------10----------------------------------
A|---------------------------------------------------------------------------------------------------
E|---------------------------------------------------------------------------------------------------



E|-------------------10--10------10--10------10-----------------------------10/13------15--15-------
B|--10--8--10----10----------10----------10------10--8h10p8---------10--13---------15---------------
G|-----------------------------------------------------------10--7----------------------------------
D|--------------------------------------------------------------------------------------------------
A|--------------------------------------------------------------------------------------------------
E|--------------------------------------------------------------------------------------------------



E|--15b15--15--13-------------
B|-----------------15--13--15\
G|----------------------------
D|----------------------------
A|----------------------------
E|----------------------------
http://www.guitartabcreator.com
Guitar Tab Creator is intended to store guitar tab created through the tool. It currently does not support in-line text editing. Any text you place in here will be lost. If you need to comment on your tab, please use the "Tab Notes" section located below.