System's Failing SOLO

(/) Slide Up  (\) Slide Down  (h) Hammer On  (p) Pull Off  (b) Bend (r) Release (v) Vibrato


E|--------------------------------------------------------------------------------------------------
B|--8v--10v----------------------------10v--12v--14v--17v----------------------------8---10v--------
G|-----------9--9--9--7h9--9/11--9--9----------------------9--9--9--7-9/11--9--9--9--7v--9----9-----
D|---------------------------------------------------------9--9--9--7h9-11--9--9--9-----------9-----
A|--------------------------------------------------------------------------------------------------
E|--------------------------------------------------------------------------------------------------



E|----------------------------------------------------------
B|--8--------------8--8----------------------8--------------
G|--7--9--9--9--9--9--7--9--9--9--9--9--7-9--7--9--9--9--7--
D|-----9--9--9--9--9-----9--9--9--9--9--7h9-----9--9--9--7--
A|----------------------------------------------------------
E|----------------------------------------------------------
http://www.guitartabcreator.com
Guitar Tab Creator is intended to store guitar tab created through the tool. It currently does not support in-line text editing. Any text you place in here will be lost. If you need to comment on your tab, please use the "Tab Notes" section located below.