Stuck (Working Title)

(/) Slide Up  (\) Slide Down  (h) Hammer On  (p) Pull Off  (b) Bend (r) Release (v) Vibrato


E|--7--7--7--7--x--x--x--x--x--x--x--x--
B|--9--9--9--9--x--x--x--x--x--x--2--2--
G|--9--9--9--9--9--9--6--6--4--4--2--2--
D|--9--9--9--9--x--x--x--x--x--x--2--2--
A|--7--7--7--7--7--7--4--4--2--2--0--0--
E|--x--x--x--x--x--x--x--x--x--x--x--x--



E|--7--7--7--7--7--7--4--4--2--2--x--x--
B|--9--9--9--9--9--9--6--6--4--4--2--2--
G|--9--9--9--9--9--9--6--6--4--4--2--2--
D|--9--9--9--9--9--9--6--6--4--4--2--2--
A|--7--7--7--7--7--7--4--4--2--2--0--0--
E|--------------------------------------



E|--
B|--
G|--
D|--
A|--
E|--
http://www.guitartabcreator.com
Guitar Tab Creator is intended to store guitar tab created through the tool. It currently does not support in-line text editing. Any text you place in here will be lost. If you need to comment on your tab, please use the "Tab Notes" section located below.