Celena

(/) Slide Up  (\) Slide Down  (h) Hammer On  (p) Pull Off  (b) Bend (r) Release (v) Vibrato


E|---2---2-------2---2-------2---2-------2---2-------2---2-------2---2-------2---2-------2---
B|---3-------3---3-------3---3-------3---3-------3---3-------3---3-------3---3-------3---3---
G|---4-----------4-----------2-----------2-----------4-----------4-----------2-----------2---
D|---4-----------4-----------0-----------0-----------4-----------4-----------0-----------0---
A|---2-----------2-----------------------------------2-----------2---------------------------
E|-------------------------------------------------------------------------------------------



E|---2---------------------------
B|-------3---2---3---2---3---2---
G|-----------2---2---2---2---2---
D|-----------2---2---2---2---2---
A|-----------0---0---0---0---0---
E|-------------------------------



E|---2-------3---
B|---3---2---3---
G|---2---2---0---
D|---0---2---0---
A|-------0---2---
E|-----------3---
http://www.guitartabcreator.com
Guitar Tab Creator is intended to store guitar tab created through the tool. It currently does not support in-line text editing. Any text you place in here will be lost. If you need to comment on your tab, please use the "Tab Notes" section located below.