Help me break my fall

(/) Slide Up  (\) Slide Down  (h) Hammer On  (p) Pull Off  (b) Bend (r) Release (v) Vibrato
E|---------------------------------------------------------
B|---------------------------------------------------------
G|---------------------------------------------------------
D|--------7-----------7-----------5-----------2/4\2--0-----
A|-----7-----7-----7-----7-----5-----5-----0---------------
E|--7-----------7-----------5-----------0------------------



E|------------------------------------------------------------------------------------------------
B|------------------------------------------------------------------------------------------------
G|------------------------------------------------------------------------------------------------
D|--------5-----------5-----------0-----------2/4/2--0--------7-----------7-----------7-----------
A|-----5-----5-----5-----5-----0-----0-----0---------------7-----7-----7-----7-----7-----7--------
E|--5-----------5-----------0-----------0---------------7-----------7-----------7-----------7-----



E|--------------------------------------------------
B|--------------------------------------------------
G|--------------------------------------------------
D|--------5-----------0-----------7-----------7-----
A|-----5-----5-----0-----0-----7-----7-----7-----7--
E|--5-----------0-----------7-----------7-----------



E|--------------------------------------------------
B|--------------------------------------------------
G|--------------------------------------------------
D|--------5-----------0-----------7-----------2-----
A|-----5-----5-----0-----0-----7-----7-----2-----2--
E|--5-----------0-----------7-----------2-----------



E|--------------------------------------------------------------------------------------------------
B|--------------------------------------------------------------------------------------------------
G|--------------------------------------------------------------------------------------------------
D|--------5-----------5-----------0-----------0-----------7-----------7-----------7-----------7-----
A|-----5-----5-----5-----5-----0-----0-----0-----0-----7-----7-----7-----7-----7-----7-----7-----7--
E|--5-----------5-----------0-----------0-----------7-----------7-----------7-----------7-----------



E|------------------------------------------------------
B|------------------------------------------------------
G|--------------------9---------------------------------
D|--------7-----9-----------------5-----------2/4\2--0--
A|-----7-----7-----7-----7-----5-----5-----0------------
E|--7-----------------------5-----------0---------------



E|--------------------------------------------------------------------
B|--------------------------------------------------------------------
G|--------------------7--------------------7--------------------------
D|--------5-----7--------------0-----7--------------7-----------7-----
A|-----5-----5-----5--------0-----0-----0--------7-----7-----7-----7--
E|--5--------------------0--------------------7-----------7-----------
http://www.guitartabcreator.com
Guitar Tab Creator is intended to store guitar tab created through the tool. It currently does not support in-line text editing. Any text you place in here will be lost. If you need to comment on your tab, please use the "Tab Notes" section located below.