You've Changed

(/) Slide Up  (\) Slide Down  (h) Hammer On  (p) Pull Off  (b) Bend (r) Release (v) Vibrato


E|-----------8-----------------8-----------------8-----------------------|--
B|--------6-----6-----------6-----6-----------6-----6-----------6-----6--|--
G|-----9-----------9-----9-----------9-----9-----------9-----9-----9-----|--
D|--7-----------------7-----------------8-----------------8--------------|--
A|-----------------------------------------------------------------------|--
E|-----------------------------------------------------------------------|--



E|--------------8-----------------------8-----------------------8-----------------------------|--
B|-----6-----6-----6-----6-----6-----6-----6-----6-----6-----6-----6-----6-----6-----6--6--5--|--
G|--------9-----------9-----------9-----------9-----------9-----------9-----------9-----------|--
D|--0-----------------------0-----------------------8-----------------------8-----------------|--
A|--0-----------------------0-----------------------8-----------------------8-----------------|--
E|--0-----------------------0-----------------------8-----------------------8-----------------|--



E|--------------0--------------------0-----------------------0-----------------------------|--
B|-----6-----6-----6--6-----6-----6-----6-----6-----6-----6-----6-----6-----6-----6--6--5--|--
G|--------9--------------------9-----------9-----------9-----------9-----------9-----------|--
D|--0--------------------0-----------------------8-----------------------8-----------------|--
A|--0--------------------0-----------------------8-----------------------8-----------------|--
E|--0--------------------0-----------------------8-----------------------8-----------------|--



E|--------------------------------------------------------------------------------------------------
B|-----------------------------------------------------6--------------------------------------------
G|--------------------------------------------------------9-----------------------------------------
D|--------------------------------------------------------------------------------------------------
A|--0--7--8--7--3--------------------------------------------0--7--8--7--3--------------------------
E|--0--7--8--7--3--0--0--0--0--0--0--0--0--0--0--0--0--------0--7--8--7--3--0--0--0--0--0--0--0-----



E|-------------------------------------------------------------------------------------------|--
B|-------------------------------------------------------------------------------------------|--
G|-------------------------------------------------------------------------------------------|--
D|-----------------------------------------------------10------------------------------------|--
A|-------------------0--7--8--10--8------------------------0--8--10--8--7--------------8--7--|--
E|--0--0--0--0--0--3b0--7--8--10--8--8--8--8--8--8--8------0--8--10--8--7--7--7--7--7--------|--
http://www.guitartabcreator.com
Guitar Tab Creator is intended to store guitar tab created through the tool. It currently does not support in-line text editing. Any text you place in here will be lost. If you need to comment on your tab, please use the "Tab Notes" section located below.