Am i losing solo

(/) Slide Up  (\) Slide Down  (h) Hammer On  (p) Pull Off  (b) Bend (r) Release (v) Vibrato
E|-----------------------------------------------------------------------------------------
B|--10-------------------------------------------------------------------------------------
G|------9b11r9--7---------------7--7--------------7--9b7------------7--9--9----7-----9--9--
D|---------------------9--7--9--------------7--9--------------7--9----------------9--------
A|-----------------------------------------------------------------------------------------
E|-----------------------------------------------------------------------------------------



E|--------------------------------------------------------------------------------------------
B|-----------------------------------------7--10--12--10--12--10----------10--12------10--12--
G|--7-----7-----------------------------7-----------------------------11----------11----------
D|-----9-----9--------------------------------------------------------------------------------
A|--------------10--10--10--10\0--------------------------------------------------------------
E|--------------------------------------------------------------------------------------------



E|----------------------------10--10--------------10------10--12--10------10----------------------
B|------12--10--------10--12--------------10--12----------------------12------12------------------
G|--11----------------------------------------------------------------------------12--12--12--12--
D|------------------------------------------------------------------------------------------------
A|------------------------------------------------------------------------------------------------
E|------------------------------------------------------------------------------------------------



E|--17b19--17b19--19--15--14--15--14------------------------------17b19--17b19--19-----
B|------------------------------------15----------15--15-------------------------------
G|----------------------------------------14--16---------------------------------------
D|-------------------------------------------------------------------------------------
A|-------------------------------------------------------------------------------------
E|-------------------------------------------------------------------------------------



E|--15--14--15--17--17--15--14-------
B|------------------------------15v--
G|-----------------------------------
D|-----------------------------------
A|-----------------------------------
E|-----------------------------------
http://www.guitartabcreator.com
Guitar Tab Creator is intended to store guitar tab created through the tool. It currently does not support in-line text editing. Any text you place in here will be lost. If you need to comment on your tab, please use the "Tab Notes" section located below.