Wake Me Up When September Ends

(/) Slide Up  (\) Slide Down  (h) Hammer On  (p) Pull Off  (b) Bend (r) Release (v) Vibrato
E|-------------|-------------|-------------|-------------|-------------|-------------|-------------|-
B|-----3-----3-|-----3-----3-|-----3-----3-|-----3-----3-|-----3-----3-|-----3-----3-|-----3-----3-|-
G|---0-----0---|---0-----0---|---0-----0---|---0-----0---|---0-----0---|---0-----0---|---0-----0---|-
D|-5-----5-----|-5-----5-----|-5-----5-----|-5-----5-----|-5-----5-----|-4-----4-----|-2-----2-----|-
A|-------------|-------------|-------------|-------------|-------------|-------------|-------------|-
E|-------------|-------------|-------------|-------------|-------------|-------------|-------------|-



E|-------------|-------------|-------------|-------------|-------------|-------------|-------------|-
B|-----3-----3-|-----5-----5-|-----4-----4-|-----3-----3-|-----3-----3-|-----3-----3-|-----3-----3-|-
G|---0-----0---|---5-----5---|---5-----5---|---0-----0---|---0-----0---|---0-----0---|---0-----0---|-
D|-0-----0-----|-5-----5-----|-5-----5-----|-5-----5-----|-5-----5-----|-5-----5-----|-4-----4-----|-
A|-------------|-------------|-------------|-------------|-------------|-------------|-------------|-
E|-------------|-------------|-------------|-------------|-------------|-------------|-------------|-



E|-------------|-------------|-------------|-------------|-------------|-----------------|---
B|-----3-----3-|-----3-----3-|-----5-----5-|-----4-----4-|-----3-----3-|-----3-------3---|---
G|---0-----0---|---0-----0---|---5-----5---|---5-----5---|---0-----0---|---0---0---0---0-|---
D|-2-----2-----|-0-----0-----|-5-----5-----|-5-----5-----|-5-----5-----|-5-------4-------|---
A|-------------|-------------|-------------|-------------|-------------|-----------------|---
E|-------------|-------------|-------------|-------------|-------------|-----------------|---



E|-------------|-------------|-------------|-----------------|-------------|-------------|-
B|-----0-----0-|-----3-----3-|-----5-----5-|-----3-------3---|-----0-----0-|-----3-----3-|-
G|---0-----0---|---4-----4---|---5-----5---|---0---0---0---0-|---0-----0---|---4-----4---|-
D|-2-----2-----|-4-----4-----|-5-----5-----|-5-------4-------|-2-----2-----|-4-----4-----|-
A|-------------|-------------|-------------|-----------------|-------------|-------------|-
E|-------------|-------------|-------------|-----------------|-------------|-------------|-



E|-------------|-------------|-------------|-------------|-------------|-------------|-
B|-----5-----5-|-----7-----7-|-----3-----3-|-----3-----3-|-----3-----3-|-----3-----3-|-
G|---5-----5---|---7-----7---|---0-----0---|---0-----0---|---0-----0---|---0-----0---|-
D|-5-----5-----|-7-----7-----|-5-----5-----|-4-----4-----|-2-----2-----|-0-----0-----|-
A|-------------|-------------|-------------|-------------|-------------|-------------|-
E|-------------|-------------|-------------|-------------|-------------|-------------|-



E|--------------------|--------------------|--
B|--------5--------5--|--------4--------4--|--
G|-----5--------5-----|-----5--------5-----|--
D|--5--------5--------|--5--------5--------|--
A|--------------------|--------------------|--
E|--------------------|--------------------|--
http://www.guitartabcreator.com
Guitar Tab Creator is intended to store guitar tab created through the tool. It currently does not support in-line text editing. Any text you place in here will be lost. If you need to comment on your tab, please use the "Tab Notes" section located below.