Dirty Little Secret By All American Rejects

(/) Slide Up  (\) Slide Down  (h) Hammer On  (p) Pull Off  (b) Bend (r) Release (v) Vibrato
E|---------------------|-----------------------|-----------------------|-----------------------|-
B|---------------------|---11---11-9-9p8-9p8---|---11---11-9-9p8-9p8---|---11---11-9-9p8-9p8---|-
G|---------------------|---------------------8-|---------------------8-|---------------------8-|-
D|-8-8-8-8-6-6p5-6p5---|-8----8----------------|-8----8----------------|-8----8----------------|-
A|-8---8-------------6-|-----------------------|-----------------------|-----------------------|-
E|-6---6---------------|-----------------------|-----------------------|-----------------------|-



E|--------------|-----------------|-----------------|-----------------|-----------------|-
B|-11-9p8-9p8---|-----------------|-----------------|-----------------|-----------------|-
G|------------8-|-----------------|-----------------|-----------------|-----------------|-
D|--------------|-8-8-8-8-8-8-8-8-|-7-7-7-7-7-7-7-7-|-5-5-5-5-5-5-5-5-|-5-5-5-5-5-5-5-5-|-
A|--------------|-----------------|-8-8-8-8-8-8-8-8-|-----------------|-6-6-6-6-6-6-6-6-|-
E|--------------|-6-6-6-6-6-6-6-6-|-----------------|-3-3-3-3-3-3-3-3-|-----------------|-



E|-----------------|-----------------|-----------------|-----------------|-------------------|-
B|-----------------|-----------------|-----------------|-----------------|-------------------|-
G|-----------------|-----------------|-----------------|-----------------|-5---5-5---5---5-5-|-
D|-8-8-8-8-8-8-8-8-|-7-7-7-7-7-7-7-7-|-5-5-5-5-5-5-5-5-|-5-5-5-5-5-5-5-5-|-5---5-5---5---5-5-|-
A|-----------------|-8-8-8-8-8-8-8-8-|-----------------|-6-6-6-6-6-6-6-6-|-3---3-3---3---3-3-|-
E|-6-6-6-6-6-6-6-6-|-----------------|-3-3-3-3-3-3-3-3-|-----------------|-------------------|-



E|-------------------|-------------------|-------------------------|-
B|-------------------|-------------------|-------------------------|-
G|-------------------|-8---8-8---8---8-8-|-10-10-10-10-10-10-10-10-|-
D|-5---5-5---5---5-5-|-8---8-8---8---8-8-|-10-10-10-10-10-10-10-10-|-
A|-5---5-5---5---5-5-|-6---6-6---6---6-6-|-8--8--8--8--8--8--8--8--|-
E|-3---3-3---3---3-3-|-------------------|-------------------------|-



E|-----------------|-----------------|-----------------|-----------------|-
B|-----------------|-----------------|-----------------|-----------------|-
G|-----------------|-8-8-8-8-8-8-8-8-|-----------------|-----------------|-
D|-8-8-8-8-8-8-8-8-|-8-8-8-8-8-8-8-8-|-5-5-5-5-5-5-5-5-|-3-3-3-3-3-3-3-3-|-
A|-8-8-8-8-8-8-8-8-|-6-6-6-6-6-6-6-6-|-5-5-5-5-5-5-5-5-|-3-3-3-3-3-3-3-3-|-
E|-6-6-6-6-6-6-6-6-|-----------------|-3-3-3-3-3-3-3-3-|-1-1-1-1-1-1-1-1-|-



E|--------------------|--
B|--------------------|--
G|--8----8----8----8--|--
D|--8----8----8----8--|--
A|--6----6----6----6--|--
E|--------------------|--



E|-----------------|-----------------|-----------------|-----------------|-
B|-----------------|-----------------|-----------------|-----------------|-
G|-----------------|-----------------|-----------------|-8-8-8-8-8-8-8-8-|-
D|-8-8-8-8-8-8-8-8-|-3-3-3-3-3-3-3-3-|-5-5-5-5-5-5-5-5-|-8-8-8-8-8-8-8-8-|-
A|-8-8-8-8-8-8-8-8-|-3-3-3-3-3-3-3-3-|-5-5-5-5-5-5-5-5-|-6-6-6-6-6-6-6-6-|-
E|-6-6-6-6-6-6-6-6-|-1-1-1-1-1-1-1-1-|-3-3-3-3-3-3-3-3-|-----------------|-



E|-------------------|-------------------|-------------------|-------------------------|-
B|-------------------|-------------------|-------------------|-------------------------|-
G|-5---5-5---5---5-5-|-------------------|-8---8-8---8---8-8-|-10-10-10-10-10-10-10-10-|-
D|-5---5-5---5---5-5-|-5---5-5---5---5-5-|-8---8-8---8---8-8-|-10-10-10-10-10-10-10-10-|-
A|-3---3-3---3---3-3-|-5---5-5---5---5-5-|-6---6-6---6---6-6-|-8--8--8--8--8--8--8--8--|-
E|-------------------|-3---3-3---3---3-3-|-------------------|-------------------------|-



E|-----------------|-----------------|-----------------|-----------------|-
B|-----------------|-----------------|-----------------|-----------------|-
G|-----------------|-8-8-8-8-8-8-8-8-|-----------------|-----------------|-
D|-8-8-8-8-8-8-8-8-|-8-8-8-8-8-8-8-8-|-5-5-5-5-5-5-5-5-|-3-3-3-3-3-3-3-3-|-
A|-8-8-8-8-8-8-8-8-|-6-6-6-6-6-6-6-6-|-5-5-5-5-5-5-5-5-|-3-3-3-3-3-3-3-3-|-
E|-6-6-6-6-6-6-6-6-|-----------------|-3-3-3-3-3-3-3-3-|-1-1-1-1-1-1-1-1-|-



E|---------------|-
B|---------------|-
G|-8---8---8---8-|-
D|-8---8---8---8-|-
A|-6---6---6---6-|-
E|---------------|-



E|--------------------------|--------------------------|--
B|--------------------------|--------------------------|--
G|--------------------------|--------------------------|--
D|--5------5------5------5--|--5------5------5------5--|--
A|--5------5------5------5--|--5------5------5------5--|--
E|--3------3------3------3--|--3------3------3------3--|--



E|--------------------------|--------------------------|--
B|--------------------------|--------------------------|--
G|--8------8------8------8--|--8------8------8------8--|--
D|--8------8------8------8--|--8------8------8------8--|--
A|--6------6------6------6--|--6------6------6------6--|--
E|--------------------------|--------------------------|--



E|--------------------------|--------------------------|--
B|--------------------------|--------------------------|--
G|--------------------------|--------------------------|--
D|--5------5------5------5--|--5------5------5------5--|--
A|--5------5------5------5--|--5------5------5------5--|--
E|--3------3------3------3--|--3------3------3------3--|--



E|--------------------------|--------------------------|--
B|--------------------------|--------------------------|--
G|--8------8------8------8--|--8------8------8------8--|--
D|--8------8------8------8--|--8------8------8------8--|--
A|--6------6------6------6--|--6------6------6------6--|--
E|--------------------------|--------------------------|--



E|--------------------------|--------------------------|--
B|--------------------------|--------------------------|--
G|--3--3--3--3--3--3--3--3--|--3--3--3--3--3--3--3--3--|--
D|--3--3--3--3--3--3--3--3--|--3--3--3--3--3--3--3--3--|--
A|--5--5--5--5--5--5--5--5--|--5--5--5--5--5--5--5--5--|--
E|--------------------------|--------------------------|--



E|--------------------------|--------------------------|--
B|--4--4--4--4--4--4--4--4--|--4--4--4--4--4--4--4--4--|--
G|--3--3--3--3--3--3--3--3--|--3--3--3--3--3--3--3--3--|--
D|--5--5--5--5--5--5--5--5--|--5--5--5--5--5--5--5--5--|--
A|--3--3--3--3--3--3--3--3--|--3--3--3--3--3--3--3--3--|--
E|--------------------------|--------------------------|--



E|--------------------------------|---------------------------------------|--
B|-----11-----11--9--9p8--9p8-----|-----11-----11--9--9p8----------13/15--|--
G|-----------------------------8--|------------------------10--12---------|--
D|--8------8----------------------|--8------8-----------------------------|--
A|--------------------------------|---------------------------------------|--
E|--------------------------------|---------------------------------------|--



E|------13------13--11--11--10--11--10------|------13------13--11--11--10--11--10-----|--
B|--11------11--------------------------11--|--11------11--------------------------11\|--
G|------------------------------------------|-----------------------------------------|--
D|------------------------------------------|-----------------------------------------|--
A|------------------------------------------|-----------------------------------------|--
E|------------------------------------------|-----------------------------------------|--



E|--------------------------------------|--------------------------------------|--
B|--------------------------------------|--------------------------------------|--
G|--------------------8--8--8--8--8--8--|--------------------------------------|--
D|--8--8--8--8--8--8--8--8--8--8--8--8--|--5--5--5--5--5--5--3--3--3--3--3--3--|--
A|--8--8--8--8--8--8--6--6--6--6--6--6--|--5--5--5--5--5--5--3--3--3--3--3--3--|--
E|--6--6--6--6--6--6--------------------|--3--3--3--3--3--3--1--1--1--1--1--1--|--



E|--------------------------------------|--------------------------------------|--
B|--------------------------------------|--------------------------------------|--
G|--------------------8--8--8--8--8--8--|--------------------------------------|--
D|--8--8--8--8--8--8--8--8--8--8--8--8--|--5--5--5--5--5--5--3--3--3--3--3--3--|--
A|--8--8--8--8--8--8--6--6--6--6--6--6--|--5--5--5--5--5--5--3--3--3--3--3--3--|--
E|--6--6--6--6--6--6--------------------|--3--3--3--3--3--3--1--1--1--1--1--1--|--



E|---------------------------------|---------------------------------|-
B|---------------------------------|---------------------------------|-
G|-----------------8-8-8-8-8-8-8-8-|---------------------------------|-
D|-8-8-8-8-8-8-8-8-8-8-8-8-8-8-8-8-|-5-5-5-5-5-5-5-5-3-3-3-3-3-3-3-3-|-
A|-8-8-8-8-8-8-8-8-6-6-6-6-6-6-6-6-|-5-5-5-5-5-5-5-5-3-3-3-3-3-3-3-3-|-
E|-6-6-6-6-6-6-6-6-----------------|-3-3-3-3-3-3-3-3-1-1-1-1-1-1-1-1-|-



E|--------------------------------------------------------------------|-
B|--------------------------------------------------------------------|-
G|-8-8-8-8-8-8-8-10-10-10-10-10-10-10-10--12-12-12-12-12-12-12-12--13-|-
D|-8-8-8-8-8-8-8-10-10-10-10-10-10-10-10--12-12-12-12-12-12-12-12--13-|-
A|-6-6-6-6-6-6-6-8--8--8--8--8--8--8--8---10-10-10-10-10-10-10-10--11-|-
E|--------------------------------------------------------------------|-



E|--------------------------------|------------------------------|--
B|--------------------------------|------------------------------|--
G|--------------------------------|------------------------------|--
D|--8--8--8--8----6--6p5--6p5-----|--8--8--8--8--6--6p5--6p5-----|--
A|--8-----8--------------------6--|--8-----8------------------6--|--
E|--6-----6-----------------------|--6-----6---------------------|--
http://www.guitartabcreator.com
Guitar Tab Creator is intended to store guitar tab created through the tool. It currently does not support in-line text editing. Any text you place in here will be lost. If you need to comment on your tab, please use the "Tab Notes" section located below.