Misunderstood

(/) Slide Up  (\) Slide Down  (h) Hammer On  (p) Pull Off  (b) Bend (r) Release (v) Vibrato


E|--------------------------------------------------------------------------------------
B|--------------------------------------------------------------------------------------
G|--------7--------7--------7--------7-----7--------5--------5--------5--------5-----5--
D|-----5--------5--------5--------5--------------3--------3--------3--------3-----------
A|--7--------7--------7--------7--------7-----5--------5--------5--------5--------5-----
E|--------------------------------------------------------------------------------------



E|--------------------------------------------------
B|--------------------------------------------------
G|--------7--------7-----7--------7--------7-----7--
D|-----5--------5--------------5--------5-----------
A|--7--------7--------7-----7--------7--------7-----
E|--------------------------------------------------



E|--------------------------------------------------
B|--------------------------------------------------
G|--------5--------5-----5--------5--------5-----5--
D|-----3--------3--------------3--------3-----------
A|--5--------5--------5-----5--------5--------5-----
E|--------------------------------------------------



E|-----------------------------------------------------------------------------------
B|---5---5---5---5---5---5---5---5---5---5---7---7---7---7---7---7---7---7---7---7---
G|---5---5---5---5---5---4---4---4---4---4---6---6---6---6---6---6---6---6---6---6---
D|---5---5---5---5---5---5---5---5---5---5---7---7---7---7---7---7---7---7---7---7---
A|---3---3---3---3---3---3---3---3---3---3---5---5---5---5---5---5---5---5---5---5---
E|-----------------------------------------------------------------------------------
http://www.guitartabcreator.com
Guitar Tab Creator is intended to store guitar tab created through the tool. It currently does not support in-line text editing. Any text you place in here will be lost. If you need to comment on your tab, please use the "Tab Notes" section located below.