Sir Duke

(/) Slide Up  (\) Slide Down  (h) Hammer On  (p) Pull Off  (b) Bend (r) Release (v) Vibrato


E|-----------------------------------------------------------------------
B|-----------------------------------------------------------------------
G|-----------------------------------------------------------------------
D|-----------9--------------------------6--------------------------5--4--
A|-----6--9--------------------6--5--6-----------2-----2--5--4--5--------
E|--7-----------4--4--7--6--7--------------3--3-----3--------------------



E|--7--4--3--2--7--4--3--2--1--
B|--7--4--3--2--7--4--3--2--1--
G|--8--4--4--3--8--4--4--3--2--
D|--9--6--5--2--9--6--5--2--1--
A|--9--6--5--4--9--6--5--4--3--
E|--7--4--3--2--7--4--3--2--1--



E|-----------------------------------------------
B|--7--6--5--4--5--6--7--7--6--5--4--5--6--7--9--
G|--7--6--5--4--5--6--7--7--6--5--4--5--6--7--9--
D|--6--5--4--3--4--5--6--6--5--4--3--4--5--6--8--
A|--7--6--5--4--5--6--7--7--6--5--4--5--6--7--9--
E|-----------------------------------------------



E|--7--8---7--9---9---
B|--7--9---9--9---10--
G|--8--10--8--9---10--
D|--9--10--9--11--10--
A|--9--8---7--11--9---
E|--7---------9-------



E|-----------------------------------------4-------------------------
B|---------------------------------------4---4-7---4-----------------
G|---------------------------------4-6-7---------6---6-4-----6-4---4-
D|-----------6-4-4-------------4-6-----------------------6-4-----6---
A|-2-2-6-4-4-----------2-4-5-6---------------------------------------
E|-----------------2-4-----------------------------------------------



E|---------------------------------------------------------------------------------
B|-4-------------------------------------------------------------------------------
G|---6-4-6-4---4---------------------------------------------4---4-----------------
D|-----------6---6-4-6-4---4-----------------------------4-6---6---6-4-6-4---4-4-4-
A|-----------------------6---6-4-6-4-2-4-2---------2-4-6-------------------6-------
E|-----------------------------------------4-2-2-4---------------------------------
http://www.guitartabcreator.com
Guitar Tab Creator is intended to store guitar tab created through the tool. It currently does not support in-line text editing. Any text you place in here will be lost. If you need to comment on your tab, please use the "Tab Notes" section located below.