Old Pine

(/) Slide Up  (\) Slide Down  (h) Hammer On  (p) Pull Off  (b) Bend (r) Release (v) Vibrato


E|-------7\|-5-----5\|-4-----4\|-2-----2/|-7-----7\|-5-----5\|-4-----4\|-2-----0-
B|-----9---|-----7---|-----5---|-----4---|-----9---|-----7---|-----5---|-----4---
G|---0-----|---0-----|---0-----|---0-----|---0-----|---0-----|---0-----|---0-----
D|-0-------|-0-------|-0-------|-0-------|-0-------|-0-------|-0-------|-0-------
A|---------|---------|---------|---------|---------|---------|---------|---------
E|---------|---------|---------|---------|---------|---------|---------|---------



E|---------0-------|---------0-------|---------0-------|---------0-------
B|-----------------|-----------------|-----------------|-----------------
G|-----0-------0---|-----0-------0---|-----0-------0---|-----0-------0---
D|---0---0---0---0-|---0---0---0---0-|---0---0---0---0-|---0---0---0---0-
A|-2---------------|-2---------------|-4---------------|-4---------------
E|-----------------|-----------------|-----------------|-----------------



E|-----------------|-------------------|-----------------|---------0-------|---------0---
B|-----------------|-------------------|-----------------|-----------------|-------------
G|-----------0---0-|-------------------|-----------0---0-|-----0-------0---|-----0-------
D|---4p2p0---------|---4p2p0---2p0-2p0-|---4p2p0---------|---0---0---0---0-|---0---0---0-
A|-----------------|-------------------|-----------------|-2---------------|-4-----------
E|-0-------0---0---|-0-------0---------|-0-------0---0---|-----------------|-------------



E|-0-|-0-|-0-|-0-
B|-0-|-0-|-0-|-0-
G|-0-|-0-|-0-|-0-
D|-4-|-2-|-0-|-0-
A|-5-|-4-|-2-|-0-
E|-0-|-0-|---|---



E|-0-|-0-|-0-|-0-|-0-
B|-0-|-0-|-0-|-0-|-0-
G|-4-|-5-|-7-|-0-|-0-
D|-0-|-0-|-0-|-0-|-0-
A|-4-|-5-|-7-|-0-|-0-
E|-0-|-0-|-0-|-9-|-7-
http://www.guitartabcreator.com
Guitar Tab Creator is intended to store guitar tab created through the tool. It currently does not support in-line text editing. Any text you place in here will be lost. If you need to comment on your tab, please use the "Tab Notes" section located below.