A Thousand Years fingerstyle tabs - Arranged by Raja Sgi

(/) Slide Up  (\) Slide Down  (h) Hammer On  (p) Pull Off  (b) Bend (r) Release (v) Vibrato

VERESE :)

E|-------------------------------------------------------------------------------------------------|
B|-------3-----------3----------3-----------------------3---------3---------3-----3-1-0-0----------|
G|--0-----------0----------0---------4(p)3------0--0----------0---------0---------0-0-0------0-----|
D|-----0-----0-----0-----0----0----0--------0---------0-----0---0-----0---0-----0----------2-----2-|
A|--3------3----3------3---3-----3---3--------3----2------2---2-----2---2-----2---2----------------|
E|--------------------------------------------------------------------------------------0------0---|
play this part after playing the verse two times
E|--------------------------------------------------0--------2--------3-------3----------2---------|
B|--3-1-0--0---1------------------1----------1------1---1----1---1----1---1---1----1-----3----Let--|
G|--0-0-0----0-------2---0----0---------0--------------0---0---0----0---0---0----0-----0-2---it----|
D|-----------------0---0----0---2-----2----2------2-----------------------------------------Ring---|
A|----------------------------0-----0---0------0----0-----0--0-----0--2----0--2------2-------------|
E|--0------2-----2---3-----3-------------------------------------------------------------2---------|

CHORUS :)

E|--------------------0------------------------------------------0---------------------------------|
B|----3--------3------------------3-------------3---------3----------------3----------0--1---------|
G|--4---4----4---4----------4-----4----4------4---4-----4---4--------4-----4---0(H)2-----0---------|
D|--0------0--------0----0------0----0-----0--0-------0--------0---0-----0---------------2---2-2---|
A|---------------------------------------------------------------------------------------3--3-3-3--|
E|--3-----3--3-----3--3-------3---2------2----0-----0---0-----0--0-----0---0-----------------------|

E|-------------------------------------------------------------------------------------------------|
B|--0--------------------1-------0---------------3---------3--------3------------------------------|
G|----------------0(H)2--2-pause---pause--2--0---------0--------0---------------REPEAT VERESE------|
D|---2--2---0(H)2--------0---------------------4----4----4----4---4----4---------------------------|
A|-----3-3-----------------------------------------------------------------------------------------|
E|-------------------------------------------3-----3---3-----3--3----3----3-2-0--------------------|

Repeat the chorus two times after the verse..this is the second chorus then leading to the bridge section


E|--------------------0------------------------------------------0---------------------------------|
B|----3--------3------------------3-------------3---------3----------------3----------0--1---------|
G|--4---4----4---4----------4-----4----4------4---4-----4---4--------4-----4---0(H)2-----0---------|
D|--0------0--------0----0------0----0-----0--0-------0--------0---0-----0---------------2---2-2---|
A|---------------------------------------------------------------------------------------3--3-3-3--|
E|--3-----3--3-----3--3-------3---2------2----0-----0---0-----0--0-----0---0-----------------------|
Bridge
E|--------------------------------------------------------------------3----------2-----------------|
B|--0--------------------1-------0--------3-------------------0-------3----------3---------3-------|
G|----------------0(H)2--2-pause---pause--2---2---2--2--2--2--0--0---------0---------2-----2-------|
D|---2--2---0(H)2--------0------------------0---0----0-0--0-----0---0----0----0----0-----0-0-------|
A|-----3-3-----------------------------------------------------------------------------------------|
E|------------------------------------------------------------3----3--3------3---2-----2---2-------|

E|-----------3---------2---------------------------3---------2------------------------3------2-----|
B|-0---------3---------3--------3-------0----------0---0-----0---0----3--------3------3------3-----|
G|-0---0---------0---------0----0--0----0----0-------0-----0---0----0-0--0-----2--2-2-2--2-2-2-----|
D|---0-----0---0----0----0----0---0--0--2--2-----2----------------------2---2--0-0-0--0-0-0--0-----|
A|--------------------------------------3------3---3-----3---3-----3--3---3------------------------|
E|-0-----0---0-----0---0-----0--0---0--------------------------------------------------------------|

E|-------------------------------------------------------------------------------------------------|
B|---3-3--------1--------1---------------------0--------0------------------------------------------|
G|-2--2--2-0-0-------0--------0--0----2---2--------0--------0----2---2---2---2---------------------|
D|-------0-----2---2---2----2---2---2---2----2---2----2---2----2---2----2--2----2------------------|
A|-----------0---0---0-----0--0---0---0----0---0----0---0----0---0----0--0----0--------------------|
E|-------------------------------------------------------------------------------------------------|

E|------------------0--------2-------3---------3-------5-------------------------------------------|
B|----1--------1----1---1----1---1---1---1-----1---1---3-------------------------------------------|
G|-0-------0----------0----0---0---0---0-----0---0---0-2-------------------------------------------|
D|---2---2---2----2------------------------------------0-------------------------------------------|
A|-0---0---0-----0--0----0---0----0--2-----2---2----2----------------------------------------------|
E|-------------------------------------------------------------------------------------------------|

REPEAT VERSE TWO TIMES . THIS IS THE ENDING PART

E|----------------------------3--2----------------------------------3---2--------------------------|
B|-----3---------3--------3---3--3-------3--------3----------3------3---3------3--------3----------|
G|-0---------0---------0--------0---0-0------0----------0-------------0---0-0-----0-0------0-------|
D|---0-----0----0----0---0--0-----------0--0----0-----0----0-----0----------0-0-0---0-0--0---------|
A|-3-----3---3-----3---3---3--3----3--2---2--2------2---2------2----2----2-------------------------|
E|-------------------------------------------------------------------------------------------------|

E|-------------3--2---5-------5--------2--------2-----------3--------------------------------------|
B|-------3-----3--3---3-------3--------3--------3-----------3--------------------------------------|
G|--0-------0---------2--2--2-2---2--2-2----2-2-2----2---2--0--------------------------------------|
D|--0--0--0----0-0--0-0-0-0---0--0-0---0---0-0--0--0---0----2--------------------------------------|
A|----------------------------------------------------------3--------------------------------------|
E|-------------------------------------------------------------------------------------------------|

http://www.guitartabcreator.com
Guitar Tab Creator is intended to store guitar tab created through the tool. It currently does not support in-line text editing. Any text you place in here will be lost. If you need to comment on your tab, please use the "Tab Notes" section located below.