Honky Tonk

(/) Slide Up  (\) Slide Down  (h) Hammer On  (p) Pull Off  (b) Bend (r) Release (v) Vibrato


E|--------------------------------------------
B|-----6--6------------8b6--------------------
G|--5-----------------------7b5----7----------
D|------------------------------------6/7-----
A|--------------------------------------------
E|-----------------------------------------8--



E|--5--------5--------5--------5--------4--------4--------4--------4-----------
B|-----6--------6--------6--------6--------6--------6--------6--------6--------
G|--------7--------7--------7--------7--------7--------7--------7--------7-----
D|-----------------------------------------------------------------------------
A|-----------------------------------------------------------------------------
E|-----------------------------------------------------------------------------



E|--5--------5--------5--------5--------10--8------------------------
B|-----6--------6--------6--------6------------10--------------------
G|--------7--------7--------7--------7-------------10----------------
D|-----------------------------------------------------10--9--8------
A|---------------------------------------------------------------11--
E|-------------------------------------------------------------------



E|--8b6-------------8b6-------------
B|-------8b6-------------8b6--------
G|---------------7---------------7--
D|------------8---------------8-----
A|----------------------------------
E|----------------------------------



E|--
B|--
G|--
D|--
A|--
E|--
http://www.guitartabcreator.com
Guitar Tab Creator is intended to store guitar tab created through the tool. It currently does not support in-line text editing. Any text you place in here will be lost. If you need to comment on your tab, please use the "Tab Notes" section located below.