Crossroads solo

(/) Slide Up  (\) Slide Down  (h) Hammer On  (p) Pull Off  (b) Bend (r) Release (v) Vibrato
E|------------------------------------------------------------------5-----5--------------------
B|------------------------------------------------------------5--7--------5--7--5--5--5--------
G|--------2-----2--2-----2-----2--4b6--------2-----2--4--4/6-----------------7--5--6--5--6-----
D|--2--4-----4--------4-----4----------2--4-----4-------------------------------------------7--
A|---------------------------------------------------------------------------------------------
E|---------------------------------------------------------------------------------------------



E|----------------------------------5------------------------------------------
B|-------------------------------------8------------------------------------8--
G|-----------7--5b7--5h7r5-----7b9--------7b9--5--7--5h7r5-----5--7b9--7/9-----
D|--------5-----------------7-------------------------------7------------------
A|--5--7-----------------------------------------------------------------------
E|-----------------------------------------------------------------------------



E|------------------------5--------8--10--8---------8---------8-----------------
B|---------------------5-----9/10------------8--10-----8--10-----5--7--7--5-----
G|--7--5---------5--7--------------------------------------------------------7--
D|--------7p5h7-----------------------------------------------------------------
A|------------------------------------------------------------------------------
E|------------------------------------------------------------------------------



E|--------------------------------------------------5-----------------------------
B|--------5--5--5--------------------------------5--5--8--5-----5-----------5-----
G|--5--7-----------7--5--5--7--------------5--6--------------7--------------5-----
D|--------------------------7--------------------------------------7--5--7--------
A|-----------------------------5--3--------------------------------------------7--
E|-----------------------------------5--5-----------------------------------------



E|------------------------12---------------------------------------------------------------
B|--13b15------13b15--15------13h15----------13h15--6-----8-----8-----8--------------------
G|---------14------------------------14--14------------7-----9-----9-----9--7--5-----------
D|--------------------------------------------------------------------------------7--5--7--
A|-----------------------------------------------------------------------------------------
E|-----------------------------------------------------------------------------------------



E|-----------------------------------8b10--12--12------12------------------------------------------------
B|--6-----8--------8-----8-----8h10--------15------15------15--13--15------13b15--15b17--13--------------
G|-----7-----9--9-----9-----9------------------------------------------14--------------------14--12--14--
D|-------------------------------------------------------------------------------------------------------
A|-------------------------------------------------------------------------------------------------------
E|-------------------------------------------------------------------------------------------------------



E|-----------------------------------------------------------------------------------
B|-------8-----8--8------------------------------10------10--10--10--13--10------10--
G|--7/9-----9--------9\7--5--7--5-----5--7/9/11------11----------------------11------
D|---------------------------------7-------------------------------------------------
A|-----------------------------------------------------------------------------------
E|-----------------------------------------------------------------------------------



E|-------------------------------------------------------------------------
B|---------10------10--12--12b14--12b14--10--------------------------------
G|--9--11------11----------------------------------0--2--2--0--------------
D|-------------------------------------------0--2--------------2--0--------
A|-------------------------------------------------------------------3--0--
E|-------------------------------------------------------------------------
http://www.guitartabcreator.com
Guitar Tab Creator is intended to store guitar tab created through the tool. It currently does not support in-line text editing. Any text you place in here will be lost. If you need to comment on your tab, please use the "Tab Notes" section located below.