Art

(/) Slide Up  (\) Slide Down  (h) Hammer On  (p) Pull Off  (b) Bend (r) Release (v) Vibrato


E|------------------6----------------
B|---------------7-----9-------------
G|------------------------7--9-------
D|-----6--7--9v----------------------
A|--7--------------------------------
E|-----------------------------------



E|--------5--------5--------5-----------5--------5--------5-----------
B|-----6--------6--------6--------6--8--------6--------6-----8--6-----
G|--7--------7--------7--------7-----------7--------7--------------7--
D|--------------------------------------------------------------------
A|--------------------------------------------------------------------
E|--------------------------------------------------------------------



E|--9-----------
B|-----7--6--9--
G|--------------
D|--------------
A|--------------
E|--------------
http://www.guitartabcreator.com
Guitar Tab Creator is intended to store guitar tab created through the tool. It currently does not support in-line text editing. Any text you place in here will be lost. If you need to comment on your tab, please use the "Tab Notes" section located below.