Rebel Rebel

(/) Slide Up  (\) Slide Down  (h) Hammer On  (p) Pull Off  (b) Bend (r) Release (v) Vibrato


E|-----0-----------------------------------
B|--------3--2-----------2--0--2-----------
G|--------------1--1--------------0--------
D|--0-----------2--2-----------------1--0--
A|--------------2--2-----------------------
E|--------------------0--------------------



E|--2--2--2-----------------
B|--2--3--3-----------------
G|--2--2--4-----------1--1--
D|--2-----4-----------2--2--
A|--------------------2--2--
E|--------2--3--2--0--------



E|--2----------
B|--3----------
G|--2--1-------
D|-----2-------
A|-----2-------
E|--------3b0--
http://www.guitartabcreator.com
Guitar Tab Creator is intended to store guitar tab created through the tool. It currently does not support in-line text editing. Any text you place in here will be lost. If you need to comment on your tab, please use the "Tab Notes" section located below.