The Beginning.

(/) Slide Up  (\) Slide Down  (h) Hammer On  (p) Pull Off  (b) Bend (r) Release (v) Vibrato


E|--7--7--9---9------5--5--7--|-----
B|--7--7--9---9------5--5--7--|-----
G|--8--8--10--10-----6--6--8--|-----
D|--9--9--11--11-----7--7--9--|-----
A|--9--9--11--11-----7--7--9--|-----
E|--7--7--9---9---0--5--5--7--|-----



E|--7--7--9---9------5--5--7--3--3--3--8---3--3--3--5--5--|--
B|--7--7--9---9------5--5--7--3--3--3--8---3--3--3--5--5--|--
G|--8--8--10--10-----6--6--8--4--4--4--9---4--4--4--6--6--|--
D|--9--9--11--11-----7--7--9--5--5--5--10--5--5--5--7--7--|--
A|--9--9--11--11-----7--7--9--5--5--5--10--5--5--5--7--7--|--
E|--7--7--9---9---0--5--5--7--3--3--3--8---3--3--3--5--5--|--
http://www.guitartabcreator.com
Guitar Tab Creator is intended to store guitar tab created through the tool. It currently does not support in-line text editing. Any text you place in here will be lost. If you need to comment on your tab, please use the "Tab Notes" section located below.