Away and out there

(/) Slide Up  (\) Slide Down  (h) Hammer On  (p) Pull Off  (b) Bend (r) Release (v) Vibrato
E|-----3-----------3-----3-----------3-----3-----------3-----3-----------3-----
B|-----------5-----------------5-----------------5-----------------5-----------
G|--------4-----4-----------4-----4-----------4-----4-----------4-----4--------
D|--2-----------------2-----------------0-----------------0--------------------
A|-----------------------------------------------------------------------------
E|-----------------------------------------------------------------------------



E|-----3-----------3-----3-----------3-----3-----------3-----3-----------3--
B|-----------5-----------------5-----------------5-----------------5--------
G|--------4-----4-----------4-----4-----------4-----4-----------4-----4-----
D|--2-----------------2-----------------0-----------------0-----------------
A|--------------------------------------------------------------------------
E|--------------------------------------------------------------------------



E|-----3-----------3-----3-----------3-----3-----------3-----3-----------3--
B|-----------5-----------------5-----------------5-----------------5--------
G|--------4-----4-----------4-----4-----------4-----4-----------4-----4-----
D|--------------------------------------------------------------------------
A|--3-----------------3-----------------2-----------------2-----------------
E|--------------------------------------------------------------------------



E|-----3-----------3-----3-----------3-----3-----------3-----3-----------3--3--
B|-----------5-----------------5-----------------5-----------------5--------5--
G|--------4-----4-----------4-----4-----------4-----4-----------4-----4-----4--
D|--------------------------------------0-----------------0-----------------2--
A|--3-----------------3-----------------------------------------------------x--
E|--------------------------------------------------------------------------0--



E|--------------------------------------------------------------------------12--12--12--12--
B|--------------------------------7--7--7--8--8--8--9---9---9---10--10--10--10--10--10--10--
G|--------------------------------8--8--8--9--9--9--10--10--10--11--11--11--11--11--11--11--
D|--2--0--2--0--2--0--2--0--2--0--0--0--0--0--0--0--0---0---0---0---0---0---0---0---0---0---
A|--2--0--2--0--2--0--2--0--2--0------------------------------------------------------------
E|--0--0--0--0--0--0--0--0--0--0------------------------------------------------------------



E|--------------------------------------------------------------------10--10--10--10--
B|--------------------------------5--5--5--6--6--6--7--7--7--8--8--8--8---8---8---8---
G|--------------------------------6--6--6--7--7--7--8--8--8--9--9--9--9---9---9---9---
D|--2--0--2--0--2--0--2--0--2--0--0--0--0--0--0--0--0--0--0--0--0--0--0---0---0---0---
A|--2--0--2--0--2--0--2--0--2--0------------------------------------------------------
E|--0--0--0--0--0--0--0--0--0--0------------------------------------------------------
http://www.guitartabcreator.com
Guitar Tab Creator is intended to store guitar tab created through the tool. It currently does not support in-line text editing. Any text you place in here will be lost. If you need to comment on your tab, please use the "Tab Notes" section located below.