Jingle Bell Rock - Declan Downie 12/19/13

(/) Slide Up  (\) Slide Down  (h) Hammer On  (p) Pull Off  (b) Bend (r) Release (v) Vibrato

E|--14--14--14----14--14--14--------17----------14----------
B|--15--15--15----14--14--14----15------15--17------17--15--
G|----------------------------------------------------------
D|----------------------------------------------------------
A|----------------------------------------------------------
E|----------------------------------------------------------



E|-----------------------------------------------------------------
B|--3--3--3----2--2--2-------2-------------2--------------2--------
G|------------------------4-----4-------4-----4-----2--4-----4-----
D|---------------------------------4-------------4--------------5--
A|-----------------------------------------------------------------
E|-----------------------------------------------------------------



E|---------------------------------------------------------------
B|---------------------------------------------------------3-----
G|----------0--2--4----2--------0--2----4p3--4p3--4--4--6-----2--
D|--2--4------------------2--4-----------------------------------
A|---------------------------------------------------------------
E|---------------------------------------------------------------



E|--------------------------------------------------------
B|--3--3--3----2--2--2-------2-------------2--------------
G|------------------------4-----4-------4-----4-----2--4--
D|---------------------------------4-------------4--------
A|--------------------------------------------------------
E|--------------------------------------------------------



E|--------------------------------------
B|--------3--3--5--5--3--3--------3--5--
G|--4--4--------------------3--3--------
D|--------------------------------------
A|--------------------------------------
E|--------------------------------------



E|------------------------------------------------------
B|--3-----2----------3-----2----------3-----2--3--5--3--
G|-----4-----4--2-------4-----4--2-------4--------------
D|------------------------------------------------------
A|------------------------------------------------------
E|------------------------------------------------------
http://www.guitartabcreator.com
Guitar Tab Creator is intended to store guitar tab created through the tool. It currently does not support in-line text editing. Any text you place in here will be lost. If you need to comment on your tab, please use the "Tab Notes" section located below.