Heart and Soul (iPad Mini Commercial)

(/) Slide Up  (\) Slide Down  (h) Hammer On  (p) Pull Off  (b) Bend (r) Release (v) Vibrato

E|--------------------------------------------------
B|--------------------------------------------------
G|--------------------------------------------------
D|--------2--2--------------------3--3--------------
A|--3--3--------0--0--3--3--5--5--------------2--2--
E|--------------------------------------3--3--------



E|--------------------------------------------------
B|-----------------------------5--5--5--5-----------
G|--5--5--5--5--4-----4--5--7--------------7--5--7--
D|-----------------7--------------------------------
A|--------------------------------------------------
E|--------------------------------------------------



E|--------------5-----------------8--7--5--7--5-----
B|--5--6--8--------8--6--5-----------------------8--
G|-----------5--------------7--5--------------------
D|--------------------------------------------------
A|--------------------------------------------------
E|--------------------------------------------------



E|-----------------------
B|--6--8--6--5-----8-----
G|--------------7-----5--
D|-----------------------
A|-----------------------
E|-----------------------
http://www.guitartabcreator.com
Guitar Tab Creator is intended to store guitar tab created through the tool. It currently does not support in-line text editing. Any text you place in here will be lost. If you need to comment on your tab, please use the "Tab Notes" section located below.