Skyfall

(/) Slide Up  (\) Slide Down  (h) Hammer On  (p) Pull Off  (b) Bend (r) Release (v) Vibrato


E|--------------------
B|--------------------
G|--------------------
D|--0/8--8--7--5v-----
A|--------------------
E|--------------------



E|-----------------------------
B|-----------------------------
G|-----------------------------
D|--0/5--7--7/8--7--5b7b5--5v--
A|-----------------------------
E|-----------------------------



E|----------------------
B|----------------------
G|----------------------
D|--7\5--7\5--7v--5/8v--
A|----------------------
E|----------------------



E|----------------------------------------
B|----------------------------------------
G|----------------------------------------
D|--5b7b5--5b7b5--5b7--5/12--13p12p10/12--
A|----------------------------------------
E|----------------------------------------



E|----------------------
B|----------------------
G|----------------------
D|----------------------
A|--13--16--15--13v-----
E|----------------------
http://www.guitartabcreator.com
Guitar Tab Creator is intended to store guitar tab created through the tool. It currently does not support in-line text editing. Any text you place in here will be lost. If you need to comment on your tab, please use the "Tab Notes" section located below.