shady bass

(/) Slide Up  (\) Slide Down  (h) Hammer On  (p) Pull Off  (b) Bend (r) Release (v) Vibrato


E|--------
B|--------
G|--------
D|--------
A|-----4--
E|--0-----



E|-----------------------------------------------------------------------------------------------------------------------------------------------------------
B|-----------------------------------------------------------------------------------------------------------------------------------------------------------
G|-----------------------------------------------------------------------------------------------------------------------------------------------------------
D|-----------------------------------------------------------------------------------------------------------------------------------------------------------
A|-----------------------------------------------------------------------------------------------------------------------------------------------------------
E|--0--0--0--0--0--0--0--0--0--0--0--0--0--0--0--0--0--0--5--5--5--5--5--5--5--5--5--5--5--5--5--5--5--5--5--5--0--0--0--0--0--0--0--0--0--0--0--0--0--0--0--



E|--------------------------------------------------
B|--------------------------------------------------
G|--------------------------------------------------
D|----------------5--5--5---------------------------
A|--5--5----5--5-------------5--5----5--5-----------
E|-----------------------------------------5--5--5--



E|--------------------------------------------------------------
B|--------------------------------------------------------------
G|-----------------------------------------5--------------5--7--
D|-----------3--------------5-----0--7--0-----7--0--7--0--------
A|-----5--------5-----7--------7--------------------------------
E|--5-----5--------7-----7--------------------------------------
http://www.guitartabcreator.com
Guitar Tab Creator is intended to store guitar tab created through the tool. It currently does not support in-line text editing. Any text you place in here will be lost. If you need to comment on your tab, please use the "Tab Notes" section located below.