make it stop spinning

(/) Slide Up  (\) Slide Down  (h) Hammer On  (p) Pull Off  (b) Bend (r) Release (v) Vibrato
E|---------------------
B|---------------------
G|---------------------
D|---------------------
A|--7----10---------9--
E|-------------7-------



E|--------------------------------------------------------------------------
B|--------------------------------------------------------------------------
G|------------7-----------------11---------------------9-------------9------
D|-------9-------9--------12--------12------------7------------11-------11--
A|--7---------------10-----------------------9------------9-----------------
E|--------------------------------------7-----------------------------------



E|--------------------------------------------------------------------------
B|--------------------------------------------------------------------------
G|--------------------------------------------------------------------------
D|--------------------------------------------------------------------------
A|--2--2--2--2--2--2--2--2--2--2--2--2--0--0--0--0--0--0--------------------
E|--------------------------------------------------------3--3--3--2--2--2--



E|--------------------
B|--------------------
G|--------------------
D|-----------------2--
A|--2----5----4-------
E|--------------------



E|--------------------------------------------------------------------------------
B|--------------------------------------------------------------------------------
G|--------------14----18--19--18--------------------16----------------------------
D|----------12--------------------19------------14--------14--14--14--16--16--16--
A|--12--14------------------------------14--16------------------------------------
E|--------------------------------------------------------------------------------



E|--------------------------------------------------------------------------------
B|--------------------------------------------------------------------------------
G|--------------14----18--19--18--------------------16----------------------------
D|----------12--------------------19------------14--------14--14--14--12--12--12--
A|--12--14------------------------------14--16------------------------------------
E|--------------------------------------------------------------------------------



E|--------------------------------------------------------------------------
B|--------------------------------------------------------------------------
G|--------------------------------------------------------------------------
D|--------------------------------------------------------------------------
A|--2--2--2--2--2--2--5--5--5--7--5--5--4--4--4--4--4--4--7--7--7--9--7--5--
E|--------------------------------------------------------------------------



E|------------------------------------------------------------------
B|------------------------------------------------------------------
G|------------------------------------------------------------------
D|------------------------------------------------------------------
A|--2----2----2--2--4----4----4--4--5----5----5--5--4----4----4--4--
E|------------------------------------------------------------------



E|------------------------------------------------------------------------------------------
B|------------------------------------------------------------------------------------------
G|--------7/11----------------------11p0--9p0--7p0-----------9----------------------14------
D|-----9--------12----------12----------------------------7-----7--------11--12/14------14--
A|--7---------------14--10------10---------------------9-----------9/12---------------------
E|--------------------------------------------------7---------------------------------------



E|---------------
B|---------------
G|---------------
D|---------------
A|------------2--
E|--3----0-------
http://www.guitartabcreator.com
Guitar Tab Creator is intended to store guitar tab created through the tool. It currently does not support in-line text editing. Any text you place in here will be lost. If you need to comment on your tab, please use the "Tab Notes" section located below.