Su Noij Song 3 Verse 1

(/) Slide Up  (\) Slide Down  (h) Hammer On  (p) Pull Off  (b) Bend (r) Release (v) Vibrato

E|-----------------------------------------------------------------
B|-----------------------------------------------------------------
G|-----------------------------------------------------------------
D|-----------------------------------------------------------------
A|-------------3-3-3-3-3-3-2-2-2-2-2-2-------------1-1-1-1---------
E|-1-1-1-1-1-1-------------------------4-4-4-4-4-4---------0-0-0-0-



E|-------------------------------------------------------------
B|-------------------------------------------------------------
G|---------------------------------------------------------3b4-
D|-----------------------------------------------------2h3-----
A|-------------3-3-3-3-3-3-2-2-2-2-2-2-------------1h2---------
E|-1-1-1-1-1-1-------------------------4-4-4-4-4-4-------------



E|-----------------------------------------------------------------
B|-----------------------------------------------------------------
G|-----------------------------------------------------------------
D|-----------------------------------------------------------------
A|-------------3-3-3-3-3-3-2-2-2-2-2-2-------------1-1-1-1---------
E|-1-1-1-1-1-1-------------------------4-4-4-4-4-4---------0-0-0-0-



E|-----------------------------------------------------------------4--
B|-----------------------------------------------------------5--------
G|-----------------------------------------------1-----5--------6-----
D|-----------------4----4----4-------------2--------3-----6-----------
A|--3----3----3----2----2----2-------3--------4-----------------------
E|--1----1----1-------------------1-----4-----------------------------
http://www.guitartabcreator.com
Guitar Tab Creator is intended to store guitar tab created through the tool. It currently does not support in-line text editing. Any text you place in here will be lost. If you need to comment on your tab, please use the "Tab Notes" section located below.