WIP

(/) Slide Up  (\) Slide Down  (h) Hammer On  (p) Pull Off  (b) Bend (r) Release (v) Vibrato


E|---------------|---------------|--
B|---------------|---------------|--
G|---------------|---------------|--
D|---------------|---------------|--
A|--7----5----3--|--7----5----3--|--
E|---------------|---------------|--



E|------------------|------------------|----------------|------------------|------------------|--
B|------------------|------------------|----------------|------------------|------------------|--
G|------------------|------------------|-----7h5--------|------------------|------------------|--
D|--------5h7h5-----|--------5h7h5-----|----------7-----|--------5h7h5-----|--------5h7h5-----|--
A|--7--7---------7--|--7--7---------7--|--5----------3--|--7--7---------7--|--7--7---------7--|--
E|------------------|------------------|----------------|------------------|------------------|--



E|----------------|--
B|----------------|--
G|-----7h5--------|--
D|----------7-----|--
A|--5----------3--|--
E|----------------|--



E|--------------------------|--------------|--------------------------|--------------|--
B|--------------------------|--------------|--------------------------|--------------|--
G|--------------------------|--------------|--------------------------|--------------|--
D|-----5-----5-----5-----5--|-----7--------|-----5-----5-----5-----5--|-----7--------|--
A|--7-----7-----7-----7-----|--5-----5--3--|--7-----7-----7-----7-----|--5-----5--3--|--
E|--------------------------|--------------|--------------------------|--------------|--
http://www.guitartabcreator.com
Guitar Tab Creator is intended to store guitar tab created through the tool. It currently does not support in-line text editing. Any text you place in here will be lost. If you need to comment on your tab, please use the "Tab Notes" section located below.