birth under a maroon summer sky

(/) Slide Up  (\) Slide Down  (h) Hammer On  (p) Pull Off  (b) Bend (r) Release (v) Vibrato


E|---------------------------------------------------------------------------------------------
B|---------17------15------13------------------13----------13------------------13----------13--
G|------0----------------------------------14----------14----------14------14----------14------
D|-------------------------------------15----------15----------15------14----------14----------
A|--15---------15------15----------------------------------------------------------------------
E|---------------------------------------------------------------------------------------------



E|-----------------------------------------------------------------------------------------
B|------------------13----------13------------------13----------13------------------11-----
G|------14------14----------14----------14------14----------14----------14------13---------
D|--14------15----------15----------15------14----------14----------14------13-------------
A|-----------------------------------------------------------------------------------------
E|-----------------------------------------------------------------------------------------



E|----------------------------------------------------------------------------
B|----------11-----------------11----------11-----------------11----------11--
G|------13-----------------13----------13-----------------12----------12------
D|--13----------14h13--13----------13----------14h13--10----------10----------
A|----------------------------------------------------------------------------
E|----------------------------------------------------------------------------



E|----------------------------------------
B|----------10----------10--10\12/10--13--
G|------12----------12----------------14--
D|--10----------10--------------------12--
A|----------------------------------------
E|----------------------------------------
http://www.guitartabcreator.com
Guitar Tab Creator is intended to store guitar tab created through the tool. It currently does not support in-line text editing. Any text you place in here will be lost. If you need to comment on your tab, please use the "Tab Notes" section located below.