Lynyrd Skynyrd - Am I losing SOLO

(/) Slide Up  (\) Slide Down  (h) Hammer On  (p) Pull Off  (b) Bend (r) Release (v) Vibrato
E|----------------------------------------------------------------------------------------------------
B|--10--7---------------------------------------------------------------------------------------------
G|---------9--7------------7--7------------7--9--7------------7--9--9--7-----9--9--7-----7------------
D|-------------------9--7------------7--9---------------7--9--------------9-----------9-----9---------
A|---------------------------------------------------------------------------------------------10-----
E|----------------------------------------------------------------------------------------------------



E|------------------------------7--------------------------7---------7--7-----------------7--10-----
B|-----------------------7--10-----10b12b10---------7--10-----7--10--------10------7--10------------
G|--------------------9--------------------------9--------------------------------------------------
D|--------------------------------------------------------------------------------------------------
A|--10--10--10\0------------------------------------------------------------------------------------
E|--------------------------------------------------------------------------------------------------



E|--10--10--7--10b12b10--7--10--7-----------------------17b19--17b19--17--15--14--15--14-------------
B|---------------------------------8--8--8------------------------------------------------15---------
G|--------------------------------------------------------------------------------------------14-----
D|---------------------------------------------------------------------------------------------------
A|---------------------------------------------------------------------------------------------------
E|---------------------------------------------------------------------------------------------------



E|------------------------------------------17b19--17b19--17----------17--15--14--15--17--15--14-----
B|------15--15----------------------15---------------------------------------------------------------
G|--16----------------------14--16------16-----------------------------------------------------------
D|---------------------------------------------------------------------------------------------------
A|---------------------------------------------------------------------------------------------------
E|---------------------------------------------------------------------------------------------------



E|--------------------------------------------17b19--17--17--15--14----------------------------------
B|--17--15--------------------15--17------15-------------------------17b19--17b19b17--15------15-----
G|--------------------14--16----------16--------------------------------------------------16---------
D|---------------------------------------------------------------------------------------------------
A|---------------------------------------------------------------------------------------------------
E|---------------------------------------------------------------------------------------------------



E|-----------------------------------------17--19--20b21--20b21--20b21--15b17b15--14--15--15--15-----
B|--17--15--15--15--------------15--17/19------------------------------------------------------------
G|---------------------------------------------------------------------------------------------------
D|---------------------------------------------------------------------------------------------------
A|---------------------------------------------------------------------------------------------------
E|---------------------------------------------------------------------------------------------------



E|--15--14------------------
B|----------15--15--15--15--
G|--------------------------
D|--------------------------
A|--------------------------
E|--------------------------
http://www.guitartabcreator.com
Guitar Tab Creator is intended to store guitar tab created through the tool. It currently does not support in-line text editing. Any text you place in here will be lost. If you need to comment on your tab, please use the "Tab Notes" section located below.