Gibson '57 solo 4

(/) Slide Up  (\) Slide Down  (h) Hammer On  (p) Pull Off  (b) Bend (r) Release (v) Vibrato
E|--9--11--12--12/14--12--9---------12/14--12--12----------------11--12--14--12--14/17--16---------
B|---------------------------12--9-------------------------9/12-----------------------------17/19--
G|-------------------------------------------------------------------------------------------------
D|-------------------------------------------------------------------------------------------------
A|-------------------------------------------------------------------------------------------------
E|-------------------------------------------------------------------------------------------------



E|---------------------------------------------------------------------------------------------
B|--17--16--14--12--10----12--10------------------------9h10p9---------------------------------
G|-----------------------------------------------9--11----------11--9--11--9---------9--11-----
D|----------------------------------------9--11-------------------------------9--11------------
A|---------------------------------------------------------------------------------------------
E|---------------------------------------------------------------------------------------------



E|--------------------------------------------13b14--12--11-------------------
B|--9h10p9-------------12/14--12--10-------------------------12/14--12--9-----
G|----------11--9--11------------------------------------------------------9--
D|----------------------------------------------------------------------------
A|----------------------------------------------------------------------------
E|----------------------------------------------------------------------------



E|------13------13--14--13------13--14--16--16--14------14------14--16b18--18b16--14---------
B|--14------14--------------14----------------------16------16------------------------16-----
G|-------------------------------------------------------------------------------------------
D|-------------------------------------------------------------------------------------------
A|-------------------------------------------------------------------------------------------
E|-------------------------------------------------------------------------------------------



E|------14--16--16b18--16--14----------14------14--16--16--16b18----16--14--13--14------13--14--
B|--14-------------------------16--16------14---------------------------------------------------
G|----------------------------------------------------------------------------------------------
D|----------------------------------------------------------------------------------------------
A|----------------------------------------------------------------------------------------------
E|----------------------------------------------------------------------------------------------



E|--21--21--21--19--------11---------------------------------------------------------------
B|----------------------------14--12-------------------------14----------------------------
G|------------------------------------14--13--11------13b15------15b13--13--11------11-----
D|------------------------------------------------14----------------------------14---------
A|-----------------------------------------------------------------------------------------
E|-----------------------------------------------------------------------------------------



E|---------------------------------------------------------------------------------------
B|---------------------------------------------------------------------------------------
G|------------------------------------------------------11------14/16--14----------------
D|--11--------------------------------------11--14--13------14---------------------------
A|------14--11--14--11--------------11--14-----------------------------------------------
E|----------------------14--12--12-------------------------------------------------------



E|--12--14p12------12---------------------------
B|-------------14------12/9--9--10--------------
G|----------------------------------11--9/8--9--
D|----------------------------------------------
A|----------------------------------------------
E|----------------------------------------------
http://www.guitartabcreator.com
Guitar Tab Creator is intended to store guitar tab created through the tool. It currently does not support in-line text editing. Any text you place in here will be lost. If you need to comment on your tab, please use the "Tab Notes" section located below.