Gibson '57 solo 3

(/) Slide Up  (\) Slide Down  (h) Hammer On  (p) Pull Off  (b) Bend (r) Release (v) Vibrato
E|--11h12--12----------12/14--14--14--12--11--9h11--------------9h11------------------------
B|--------------------------------------------------12----------------12--9h10--------------
G|------------------------------------------------------------------------------11--8h9-----
D|------------------------------------------------------------------------------------------
A|------------------------------------------------------------------------------------------
E|------------------------------------------------------------------------------------------

E|---------------------------------------------------------------------
B|---------------------------------------------------------------------
G|-----------------------------------------------9p8--9/11/9--8--9--9--
D|--11--11/13--11--9--9h11p9----------------8/9------------------------
A|----------------------------12---------------------------------------
E|---------------------------------------------------------------------

E|--11h12--12----------12/14--14--14--12--11--9h11--------------9h11------------------------
B|--------------------------------------------------12----------------12--9h10--------------
G|------------------------------------------------------------------------------11--9-8h9---
D|------------------------------------------------------------------------------------------
A|------------------------------------------------------------------------------------------
E|------------------------------------------------------------------------------------------

E|-----------------------------12/14-12-11-12-------11----12----14-12---14--17-16-17-19-17-16-17-
B|-------------------10/12-10--------------------12----12----12-------12--------------------
G|----------9/11-9--------------------------------------------------------------------------
D|--9/11-9----------------------------------------------------------------------------------
A|------------------------------------------------------------------------------------------
E|------------------------------------------------------------------------------------------

E|--18b19-17-16-----------------------------------------------------------------------------
B|--------------17-19-17-16-17---------------9h10p9-----------------------------------------
G|--------------------------------------------------11-9-8-9h11-9---------------------------
D|------------------------------------------------------------------------------------------
A|------------------------------------------------------------------------------------------
E|------------------------------------------------------------------------------------------
http://www.guitartabcreator.com
Guitar Tab Creator is intended to store guitar tab created through the tool. It currently does not support in-line text editing. Any text you place in here will be lost. If you need to comment on your tab, please use the "Tab Notes" section located below.