Gibson '57 solo 2

(/) Slide Up  (\) Slide Down  (h) Hammer On  (p) Pull Off  (b) Bend (r) Release (v) Vibrato

E|--11h12--12----------12/14--14--14--12--11--9h11--------------9----11---------------------
B|--------------------------------------------------12-----------------12----9-10-----------
G|--------------------------------------------------------------------------------11--9-8-9-
D|------------------------------------------------------------------------------------------
A|------------------------------------------------------------------------------------------
E|------------------------------------------------------------------------------------------

E|-----------------------------------7/9h10p9h10p9h10p9h10p9-----------14-12----------------
B|-----------------9-10-9----------------------------------------12/14-------14-12-14--14\7-
G|------------9-11--------11-9---------------------------------------------------------14\7-
D|-------9h11-------------------------------------------------------------------------------
A|----11------------------------------------------------------------------------------------
E|-12---------------------------------------------------------------------------------------

E|---------------------------------------------------------19-17-16-------------------------
B|-----------------9-10-9-------------------------------------------17----------------------
G|------------9-11--------11-9\8/9\8--------------------------------------------------------
D|----9h11-11------------------------9/11-9-------------------------------------------------
A|-12---------------------------------------12----------------------------------------------
E|------------------------------------------------------------------------------------------
Guitar Tab Creator is intended to store guitar tab created through the tool. It currently does not support in-line text editing. Any text you place in here will be lost. If you need to comment on your tab, please use the "Tab Notes" section located below.