90's college kid.

(/) Slide Up  (\) Slide Down  (h) Hammer On  (p) Pull Off  (b) Bend (r) Release (v) Vibrato

Intro/Verse

G|--------1-----2-------4------4-----------
D|------2-----2---2---4--4---4---4---------
A|-/14-2----0-------2------2---------------
E|-----------------------------------------

or

G|------------------------
D|------------------------
A|-7-7-7-7-0-0-0-0-2-2-2-2
E|------------------------


Chorus


G|-------------------------------
D|-2-2-2-2-----------------------
A|---------2-2-2-2-4-4-4-4-------
E|------------------------5-5-5-5


http://www.guitartabcreator.com
Guitar Tab Creator is intended to store guitar tab created through the tool. It currently does not support in-line text editing. Any text you place in here will be lost. If you need to comment on your tab, please use the "Tab Notes" section located below.