Original 2

(/) Slide Up  (\) Slide Down  (h) Hammer On  (p) Pull Off  (b) Bend (r) Release (v) Vibrato


E|----9-----12----7----9-----
B|----9-----12----7----9-----
G|----10----13----8----10----
D|----11----14----9----11----
A|----11----14----9----11----
E|----9-----12----7----9-----



E|--9-----5--12--7--9---
B|--9-----5--12--7--9---
G|--10----6--13--8--10--
D|--11----7--14--9--11--
A|--11----7--14--9--11--
E|--9-----5--12--7--9---
http://www.guitartabcreator.com
Guitar Tab Creator is intended to store guitar tab created through the tool. It currently does not support in-line text editing. Any text you place in here will be lost. If you need to comment on your tab, please use the "Tab Notes" section located below.