Ashiqui 2 : Theme of Love

(/) Slide Up  (\) Slide Down  (h) Hammer On  (p) Pull Off  (b) Bend (r) Release (v) Vibrato


E|--5--7--8--5--7--8--------------
B|--------------------6--6--5--6--
G|--------------------------------
D|--------------------------------
A|--------------------------------
E|--------------------------------



E|--3--5--7--3--5--7-----------------
B|--------------------6--6--5--3--5--
G|-----------------------------------
D|-----------------------------------
A|-----------------------------------
E|-----------------------------------



E|--6--6--12--12--13--12--11--12--------
B|--------------------------------7--7--
G|--------------------------------------
D|--------------------------------------
A|--------------------------------------
E|--------------------------------------



E|--------------------
B|--------------------
G|--5--7--8--5--7--7--
D|--------------------
A|--------------------
E|--------------------
http://www.guitartabcreator.com
Guitar Tab Creator is intended to store guitar tab created through the tool. It currently does not support in-line text editing. Any text you place in here will be lost. If you need to comment on your tab, please use the "Tab Notes" section located below.