Indian Scales

(/) Slide Up  (\) Slide Down  (h) Hammer On  (p) Pull Off  (b) Bend (r) Release (v) Vibrato


E|-------------------------------------8-------------------------------------
B|-------------------------------8--9-----9--8-------------------------------
G|---------------------------10-----------------10---------------------------
D|-------------------10--11-------------------------11--10-------------------
A|--------8--10--11-----------------------------------------11--10--8--------
E|--8--9---------------------------------------------------------------9--8--



E|------------------------------------8------------------------------------
B|-----------------------------8-9-11---11-9-8-----------------------------
G|------------------------8-10-----------------10-8------------------------
D|----------------8-10-11---------------------------11-10-8----------------
A|--------8-10-11-------------------------------------------11-10-8--------
E|-8-9-11-----------------------------------------------------------11-9-8-
http://www.guitartabcreator.com
Guitar Tab Creator is intended to store guitar tab created through the tool. It currently does not support in-line text editing. Any text you place in here will be lost. If you need to comment on your tab, please use the "Tab Notes" section located below.