Dead Leaves On The Dirty Ground - White Stripes

(/) Slide Up  (\) Slide Down  (h) Hammer On  (p) Pull Off  (b) Bend (r) Release (v) Vibrato
E|--------------------------------------------------------------------------------------------
B|--------------------------------------------------------------------------------------------
G|--------------------------------------------------------------------------------------------
D|--------------------------------------------7--------------------------------------------7--
A|--------------------------------------------7--------------------------------------------7--
E|--5--5--5--0--3--3--3--0--2--2--0--1--1--0--5--5--5--5--0--3--3--3--0--2--2--0--1--1--0--5--



E|-----------------------------------------------------------------------------------------
B|-----------------------------------------------------------------------------------------
G|-----------------------------------------------------------------------------------------
D|--7--7--7--7--5--5--5--5--4--x--x--3--x--x--7--7--7--7--5--5--5--5--4--x--x--3--x--x--7--
A|--7--7--7--7--5--5--5--5--4--x--x--3--x--x--7--7--7--7--5--5--5--5--4--x--x--3--x--x--7--
E|--5--5--5--5--3--3--3--3--2--x--x--1--x--x--5--5--5--5--3--3--3--3--2--x--x--1--x--x--5--



E|-----------------------------------------------------------------------------
B|-----------2--3--2--------------------------------------------------2--3--2--
G|--------2--------------------------0--------0--------0-----------2-----------
D|-----2--------------------------0--------2--------4-----4-----2--------------
A|--0-----------------------0--2--------3--------5-----------0-----------------
E|--------------------0--3-----------------------------------------------------



E|-----------------------------------------------------------------------------
B|-----------2--3--2--------------------------------------------------2--3--2--
G|--------2--------------------------2--------0--------0-----------2-----------
D|-----2--------------------------2--------2--------4-----4-----2--------------
A|--0-----------------------0--2--------3--------5-----------0-----------------
E|--------------------0--3-----------------------------------------------------



E|--0--0--0--0--0--3--3--3--3--3--0--0--0--2--2--0--0--0--0--
B|--2--2--2--2--2--0--0--0--0--0--1--1--1--3--3--2--2--2--2--
G|--2--2--2--2--2--0--0--0--0--0--0--0--0--2--2--2--2--2--2--
D|--2--2--2--2--2--0--0--0--0--0--2--2--2--0--0--2--2--2--2--
A|--0--0--0--0--0--2--2--2--2--2--3--3--3--------0--0--0--0--
E|-----------------3--3--3--3--3-----------------------------



E|-----------------------------
B|-----------------------------
G|-----------------------------
D|----3----5----7----x----x----
A|----3----5----7----x----x----
E|----1----3----5----x----x----



E|--------------------------------------------------------------------------
B|--------------------------------------------------------------------------
G|---------------------------------------5----x----x----7----x----x---------
D|----7----7----x----5----5----x----x----5----x----x----7----x----x----7----
A|----7----7----x----5----5----x----x----3----x----x----5----x----x----7----
E|----5----5----x----3----3----x----x--------------x-------------------5----



E|--2--2--2--2--2--2--2--2--0--0--0--0--0--0--0--2--2--2--2--2--2--2--2--
B|--3--3--3--3--3--3--3--3--2--2--2--2--2--2--2--3--3--3--3--3--3--3--3--
G|--2--2--2--2--2--2--2--2--2--2--2--2--2--2--2--2--2--2--2--2--2--2--2--
D|--0--0--0--0--0--0--0--0--2--2--2--2--2--2--2--0--0--0--0--0--0--0--0--
A|-----------------------0--0--0--0--0--0--0--0--------------------------
E|-----------------------------------------------------------------------



E|--------------------------------------------------
B|--------------------------------------------------
G|--------------------------------------------------
D|--3--3--3--3--3--3--3--3--5--5--5--5--5--5--5--5--
A|--3--3--3--3--3--3--3--3--5--5--5--5--5--5--5--5--
E|--1--1--1--1--1--1--1--1--3--3--3--3--3--3--3--3--
http://www.guitartabcreator.com
Guitar Tab Creator is intended to store guitar tab created through the tool. It currently does not support in-line text editing. Any text you place in here will be lost. If you need to comment on your tab, please use the "Tab Notes" section located below.