Awaken

(/) Slide Up  (\) Slide Down  (h) Hammer On  (p) Pull Off  (b) Bend (r) Release (v) Vibrato

E|------------------------------------------------------------------------------------------
B|--------------------------------------------------------------14--12v--14--12-------------
G|--14--13--11------11------14--13--11------11------11--13--14-------------------14--13-----
D|--------------14------11--------------14------11------------------------------------------
A|------------------------------------------------------------------------------------------
E|------------------------------------------------------------------------------------------



E|-----------------------------------------------------------------------
B|--------------------------------------------------------------14--12v--
G|--14--13--11------11------14--13--11------11------11--13--14-----------
D|--------------14------11--------------14------11-----------------------
A|-----------------------------------------------------------------------
E|-----------------------------------------------------------------------



E|-------------------------------------------------------------------------------------------
B|----------------------------------------------------------------------------------12--14v--
G|--14--13--11--14--13--11--------------11--11v--11h13--14--13--11--14--13--11---------------
D|--------------------------14--11--14------------------------------------------14-----------
A|-------------------------------------------------------------------------------------------
E|-------------------------------------------------------------------------------------------



E|-----------------------------------------------------------------------------------------------
B|--14--14--12--12--10--10--10--12--12--14--14--14--12--12--10--10--10--10-----------------------
G|--------------------------------------------------------------------------14--13--11--13--11v--
D|-----------------------------------------------------------------------------------------------
A|-----------------------------------------------------------------------------------------------
E|-----------------------------------------------------------------------------------------------



E|------------------12--10--9--7--7--9------------------12--10--9--7--7--9-----------------
B|--14----------------------------------14----------------------------------12--10--9--10--
G|------11--13--14--------------------------11--13--14-------------------------------------
D|-----------------------------------------------------------------------------------------
A|-----------------------------------------------------------------------------------------
E|-----------------------------------------------------------------------------------------



E|---------------
B|--10--9--7--9--
G|--11--9--7--9--
D|--11--9--7--9--
A|--9---7--5--7--
E|---------------
http://www.guitartabcreator.com
Guitar Tab Creator is intended to store guitar tab created through the tool. It currently does not support in-line text editing. Any text you place in here will be lost. If you need to comment on your tab, please use the "Tab Notes" section located below.